>
 >
Susanna

Susanna Guitar Tabs

Adriano Celentano - Susanna chords, tabs, tablatures, lyrics

Guitar lessons | Add/correct | Request | Top 50 tabs Artists:  A B C D E F G H I J K L M N O P Q R S T U V W X Y Z 0-9

Susanna Guitar Tabs – Adriano Celentano

CD, Sheet music, Poster

Do you like Susanna? Share with your friends now
Bass TabsTabs

Tuning: E A D G B E



Gtr I (E A D G B E) - 'Piano'
Gtr II (E A D G B E) - 'Voice'
Gtr III (E A D G B E) - 'Guitar'
Gtr IV (E A D G B E) - 'Harmonica'

  Q=93
 4/4
  Gtr I
  W          E E E E E E E E   E E E E E E E E   E E E E E E E E
|----------|---0---0---0---0-|---0---0---0---0-|---0---0---0---0--|
|----------|---1---1---0---0-|---1---1---0---0-|---1---1---0---0--|
|----------|---2---2---0---0-|---2---2---0---0-|---2---2---0---0--|
|----------|---2---2---2---2-|---2---2---2---2-|---2---2---2---2--|
|----------|-0---------------|-----------------|-0----------------|
|----------|-----------------|---------------3-|------------------|


  E E E E E E E E   E E E   E    E  E E E
|---0---0---0---0-|---0-----0-------0---0-|
|---1---1---0---0-|---1-----1-------0---0-|
|---2---2---0---0-|---2-----2-------0---0-|
|---2---2---2---2-|---2-----2-------2---2-|
|-----------------|-0---------------------|
|-----------------|--------------0----3---|
|
| Gtr II
| W                 Q   S S S S +E  E E E
|-----------------|-----5---7-8-(8)-7-5-3-|
|-----------------|-----------------------|
|-----------------|-----------------------|
|-----------------|-----------------------|
|-----------------|-----------------------|
|-----------------|-----------------------|


   E     E E E E E E E   E E E E    E  E E E
|--------0---0---0---0-|---0---0-------0---0-----|
|--------1---1---0---0-|---1---1-------0---0-----|
|--------2---2---0---0-|---2---2-------0---0-----|
|--------2---2---2---2-|---2---2-------2---2-----|
|--0-------------------|-0-----------------------|
|--------------0---3---|------------0----3-------|
|
| +S  E.   H       Q     Q   E S S +E  E E S  S
|-(3)-5----------------|-----8-7-8-(8)-7-8---10--|
|----------5-----------|-------------------------|
|----------------------|-------------------------|
|----------------------|-------------------------|
|----------------------|-------------------------|
|----------------------|-------------------------|


    E      E   E  E   E  E E E   E E  E  E      E      E   E     E
|----------0------0------0---0-|---0-----0-------------0---------0----|
|----------1------1------0---0-|---1-----1-------------0---------0----|
|----------2------2------0---0-|---2-----2-------------0---------0----|
|----------2------2------2---2-|---2-----2-------------2---------2----|
|---0--------------------------|-0------------------------------------|
|---------------------0----3---|----------------0----------3----------|
|
|  +S   E.    +Q     +E  E Q     Q    E  S  S  +S   E.    +S   E    S
|-(10)-12----(12)---(12)-------|-----15-13-12-(12)-10----(10)-15---13-|
|------------------------------|--------------------------------------|
|------------------------------|--------------------------------------|
|------------------------------|--------------------------------------|
|------------------------------|--------------------------------------|
|------------------------------|--------------------------------------|


    E     E  E E E E E E   E E E E    E  E E  E
|---------0----0---0---0-|---0---0-------0----0---|
|---------1----1---0---0-|---1---1-------0----0---|
|---------2----2---0---0-|---2---2-------0----0---|
|---------2----2---2---2-|---2---2-------2----2---|
|---0--------------------|-0----------------------|
|----------------0---3---|------------0----3------|
|
|  +S  S  E  H       Q     Q   E S S +E  E E  E
|-(13)---12-10-----------|-----8-7-8-(8)-7-8-10---|
|------------------------|------------------------|
|------------------------|------------------------|
|------------------------|------------------------|
|------------------------|------------------------|
|------------------------|------------------------|


  E     E   E  E   E  E E E   E S  S  E  E  E  E   E     E
|-------0------0------0---0-|---1--------------------------|
|-------1------1------1---1-|---1--------1-----1---------1-|
|-------2------2------2---2-|---2--------2-----2---------2-|
|-------2------2------2---2-|------------3-----3---------3-|
|-0----------------0--------|----------------------0-------|
|---------------------------|---------0-----1--------------|
|
| S  E.    +Q     +Q    Q     E S  S  E  E  E  E  +S  S  E
|---12----(12)---(12)-------|--------13-12--------------12-|
|---------------------------|-----10-------13--------------|
|---------------------------|-----------------14-(14)------|
|---------------------------|------------------------------|
|---------------------------|------------------------------|
|---------------------------|------------------------------|


   E  S S   E  E   E    S S E S S   E S  S  E  E  E  E      E   E
|---------------------------------|---1---------------------------|
|-----3--------3--------3-----3---|---1--------1-----1----------1-|
|-----4--------4--------4-----4---|---2--------2-----2----------2-|
|-----5--------5--------5-----5---|------------3-----3----------3-|
|---------------------------------|-------------------------0-----|
|--3---------------3--------------|---------0-----1---------------|
|
|  E  E    +Q     +S  S E   Q       E S  S  E  E  E.    S  +E   E
|-10-10---(10)---(10)-------------|--------12-12---------------12-|
|---------------------------------|-----10-------13---------------|
|---------------------------------|--------------------14-(14)----|
|---------------------------------|-------------------------------|
|---------------------------------|-------------------------------|
|---------------------------------|-------------------------------|


   E  S S   E  E E E Q       E  E      E  E    E  E E  E
|-------------------------|-----0---------0-------0----0-|
|-----3--------3----------|-----1---------1-------0----0-|
|-----4--------4----------|-----2---------2-------0----0-|
|-----5--------5----------|-----2---------2-------2----2-|
|-------------------------|--0---------------------------|
|--3-------------3--------|--------------------0----3----|
|
|  E  E    +Q    Q   E  E    E.    S  +Q       Q    E  E
|-10-10---(10)---------13-|-12------------------------13-|
|-------------------------|-------13-(13)----------------|
|-------------------------|------------------------------|
|-------------------------|------------------------------|
|-------------------------|------------------------------|
|-------------------------|------------------------------|
|
| Gtr III
|  W                         Q         E  S S +H
|-------------------------|-----------------5-(5)--------|
|-------------------------|---------------1-5-(5)--------|
|-------------------------|---------------2--------------|
|-------------------------|------------------------------|
|-------------------------|------------------------------|
|-------------------------|------------------------------|


   E  E      E  E    E  E E  E    E  E      E   E    E  E  E     E
|-----0---------0--------------|-----0----------0----------------0--|
|-----1---------1-------3----3-|-----1----------1-------1--------0--|
|-----2---------2-------4----4-|-----2----------2-------2--------0--|
|-----2---------2-------5----5-|-----2----------2-------3--------2--|
|--0--------------------7----7-|--0---------------------------------|
|--------------------0----3----|---------------------------0--------|
|
|  E.    S  +Q       Q    E  E    E.    S  +E   S S  E  E  E     E
|-12------------------------13-|-12---------------------------------|
|-------13-(13)----------------|-------13-(13)-13---13-15-----------|
|------------------------------|--------------------------16--------|
|------------------------------|--------------------------------17--|
|------------------------------|------------------------------------|
|------------------------------|------------------------------------|
|
|  Q         E  S S +H            H                  Q     S E.
|-----------------5-(5)--------|-----------------------------3------|
|-----------------5-(5)--------|------------------------------------|
|---------------5--------------|---------------------------7--------|
|---------------7--------------|---------------------------5--------|
|------------------------------|------------------------------------|
|------------------------------|------------------------------------|


   E      E  E   E E E E E   E  E E  E E E E E
|---------8------8---7---7-|----8----8---7---7-|
|--------10-----10---8---8-|---10---10---8---8-|
|---------9------9---9---9-|----9----9---9---9-|
|--------------------------|-------------------|
|--------------------------|-------------------|
|--------------------------|-------------------|
|
|  H.                  Q     W
|--------------------------|-------------------|
|--------------------------|-------------------|
|--------------------------|-------------------|
|-19-----------------------|-------------------|
|--------------------------|-------------------|
|--------------------------|-------------------|
|
|  S  E.    +H         Q     W
|-----5-----(5)------------|-------------------|
|--1--5-----(5)------------|-------------------|
|--2-----------------------|-------------------|
|--------------------------|-------------------|
|--------------------------|-------------------|
|--------------------------|-------------------|


  E E  E   E      E       E  E E        E      E  E  E      E   E    E E
|------------------------------0----|----------0-----0----------0------0---|
|---5------5--------------5----0----|----------1-----1----------0------0---|
|---5------5--------------4----0----|----------2-----2----------0------0---|
|---7------7--------------5----2----|----------2-----2----------2------2---|
|---7------7--------------7---------|---0----------------------------------|
|-5---------------0----------3------|-----------------------0--------3-----|
|
| Q    E   S  S  +S   E.     E S  S    +S   E.    Q        +Q        Q
|-----------------------------------|--------------------------------------|
|-----------------------------------|--------------------------------------|
|-----------------------------------|--------------------------------------|
|-----19--21-22-(22)-21-----19---17-|-(17)-19------------------------------|
|-----------------------------------|------------19-------(19)-------------|
|-----------------------------------|--------------------------------------|
|
| Q    E.     S   E       E  Q          Q         E.    S   E   S S  Q
|-----12-----12----------12---------|------------12----12------12---10-----|
|-----13-----13----------13---------|------------13----13------13---12-----|
|-----14-----14----------14---------|------------14----14------14---12-----|
|-----------------------------------|--------------------------------------|
|-----------------------------------|--------------------------------------|
|-----------------------------------|--------------------------------------|


  E E  E   E      E   E  E  E        E   E   E  E    E  E    E E
|---0------0----------0-----0----|-------0------0-------0------0-|
|---1------1----------0-----0----|-------1------1-------0------0-|
|---2------2----------0-----0----|-------2------2-------0------0-|
|---2------2----------2-----2----|-------2------2-------2------2-|
|-0------------------------------|---0---------------------------|
|-----------------0------3-------|-------------------0-------3---|
|
| Q    E   S  S  +E   E  E.    S    +E   E  +Q       H
|--------------------------------|-------------------------------|
|-----------------------------15-|-(15)-17-(17)------------------|
|-----17--16-17-(17)-16-17-------|-------------------------------|
|--------------------------------|-------------------------------|
|--------------------------------|-------------------------------|
|--------------------------------|-------------------------------|
|
| Q    E.     S   E   E  Q           Q       E.    S E  S S  Q
|-----12-----12------12----------|----------12----12---12---10---|
|-----13-----13------13----------|----------13----13---13---12---|
|-----14-----14------14----------|----------14----14---14---12---|
|--------------------------------|-------------------------------|
|--------------------------------|-------------------------------|
|--------------------------------|-------------------------------|


  E E  E   E      E     E   E     E        E      E   E      E      E   E    E E
|---0------0------------0---------0----|----------0----------0----------0------0-|
|---1------1------------0---------0----|----------1----------1----------0------0-|
|---2------2------------0---------0----|----------2----------2----------0------0-|
|---2------2------------2---------2----|----------2----------2----------2------2-|
|-0------------------------------------|---0-------------------------------------|
|-----------------0---------3----------|----------------------------0--------3---|
|
| Q    E   S  S  +S  S  E  +S   E    S    +S   E.    +S   E.       +Q        Q
|-----15--13-12-(12)---10-(10)-15---13-|-(13)-12----(12)-10-------(10)-----------|
|--------------------------------------|-----------------------------------------|
|--------------------------------------|-----------------------------------------|
|--------------------------------------|-----------------------------------------|
|--------------------------------------|-----------------------------------------|
|--------------------------------------|-----------------------------------------|
|
| Q    E.     S   E     E   Q              Q          E.        S   E   S S  Q
|-----12-----12--------12--------------|-------------12--------12------12---10---|
|-----13-----13--------13--------------|-------------13--------13------13---12---|
|-----14-----14--------14--------------|-------------14--------14------14---12---|
|--------------------------------------|-----------------------------------------|
|--------------------------------------|-----------------------------------------|
|--------------------------------------|-----------------------------------------|


  E E    E  E    E   E    E    E        E   E   E   E  E E  E  E
|---0-------0--------0---------0----|-------0-------0----0-----0-|
|---1-------1--------0---------0----|-------1-------1----1-----1-|
|---2-------2--------0---------0----|-------2-------2----2-----2-|
|---2-------2--------2---------2----|-------2-------2----2-----2-|
|-0---------------------------------|---0--------------0---------|
|----------------0--------3---------|----------------------------|
|
| E S S  E  E    E.    S +S  E    S    +E   E  +Q      H
|-----8--8--7----8-----7-(7)-8---10-|-(10)-12-(12)---------------|
|-----------------------------------|----------------------------|
|-----------------------------------|----------------------------|
|-----------------------------------|----------------------------|
|-----------------------------------|----------------------------|
|-----------------------------------|----------------------------|
|
| Q      E.    S E   E    Q             Q       E   E  Q    E  E
|-------12----12----12--------------|--17------15--17------------|
|-------13----13----13--------------|-----------------17---15-13-|
|-------14----14----14--------------|----------------------------|
|-----------------------------------|----------------------------|
|-----------------------------------|----------------------------|
|-----------------------------------|----------------------------|


   E S  S  E  E  E  E   E     E        E     S S   E  E E S S  E  S S
|----1-----------------------------|----------------------------------|
|----1--------1-----1---------1----|---------3--------3---3-------3---|
|----2--------2-----2---------2----|---------4--------4---4-------4---|
|-------------3-----3---------3----|---------5--------5---5-------5---|
|-----------------------0----------|----------------------------------|
|----------0-----1-----------------|---3----------------3-------------|
|
|  E S  S  E  E  E  E  +S   E    S    +S  S  E    +E  E H
|------12-12-12------------12---10-|-(10)---10---(10)-----------------|
|---------------13-----------------|----------------------------------|
|------------------14-(14)---------|----------------------------------|
|----------------------------------|----------------------------------|
|----------------------------------|----------------------------------|
|----------------------------------|----------------------------------|
|
|  H             H                     H                Q      E  E
|----------------------------------|----------------------------------|
|-15-------------------------------|----------------------------------|
|----------------------------------|----------------------------------|
|----------------------------------|----------------------------------|
|----------------------------------|-----------------------------17---|
|----------------------------------|--------------------------17------|


   W
|-------------------------------|
|--1----------------------------|
|--2----------------------------|
|--3----------------------------|
|-------------------------------|
|-------------------------------|
|
|  Q   S S  S  S S  E  S  +E  E
|-----12---10-12---10-12-(12)---|
|-------------------------------|
|-------------------------------|
|-------------------------------|
|-------------------------------|
|-------------------------------|
|
|  W
|-------------------------------|
|-------------------------------|
|-------------------------------|
|-------------------------------|
|-15----------------------------|
|-------------------------------|


   +W                                         +W
|------------------------------------------|----------------------|
|--(1)-------------------------------------|--(1)-----------------|
|--(2)-------------------------------------|--(2)-----------------|
|--(3)-------------------------------------|--(3)-----------------|
|------------------------------------------|----------------------|
|------------------------------------------|----------------------|
|
|   Q    S S  S  S  +S   S S  S  S  S S  S    +S  S E Q  Q  E  E
|-------12---10-12-(12)-10---12-12-10---12-|-(12)-------------13--|
|------------------------------------------|----------------------|
|------------------------------------------|----------------------|
|------------------------------------------|----------------------|
|------------------------------------------|----------------------|
|------------------------------------------|----------------------|
|
|  +W                                          W
|------------------------------------------|----------------------|
|------------------------------------------|----------------------|
|------------------------------------------|----------------------|
|------------------------------------------|----------------------|
|-(15)-------------------------------------|----------------------|
|------------------------------------------|----------------------|


   E  E      E   E   E  E E  E    E  E      E   E   E  E E  E
|-----0----------0------0----0-|-----0----------0-------------|
|-----1----------1------0----0-|-----1----------1------3----3-|
|-----2----------2------0----0-|-----2----------2------4----4-|
|-----2----------2------2----2-|-----2----------2------5----5-|
|--0---------------------------|--0--------------------7----7-|
|--------------------0----3----|--------------------0----3----|
|
|  E.    S  +E   E   Q    E  E    E.    S  +E   E   Q    E  E
|-12------------------------13-|-12------------------------13-|
|-------13-(13)----------------|-------13-(13)----------------|
|------------------------------|------------------------------|
|------------------------------|------------------------------|
|------------------------------|------------------------------|
|------------------------------|------------------------------|
|
|  Q         E   E  +H            Q         E   E  +H
|------------------------------|------------------------------|
|------------------------------|------------------------------|
|---------------14-(14)--------|---------------14-(14)--------|
|---------------14-(14)--------|---------------14-(14)--------|
|------------------------------|------------------------------|
|---------------17-(17)--------|---------------17-(17)--------|


   E  E      E   E    E  E  E    E    E E E E  E E E  E
|-----0----------0---------------0-|----0---0------------|
|-----1----------1-------1-------0-|----1---1----3----3--|
|-----2----------2-------2-------0-|----2---2----4----4--|
|-----2----------2-------3-------2-|-------------5----5--|
|--0-------------------------------|---------------------|
|---------------------------0------|--1--------3---------|
|
|  E.    S  +E   S S  E  E  S S  E    H        Q   E  E
|-12-------------------------------|---------------------|
|-------13-(13)-13---13-15---------|-----------------18--|
|--------------------------16------|---------------------|
|-------------------------------17-|-19------------------|
|----------------------------------|---------------------|
|----------------------------------|---------------------|
|
|  H                  E  E  E    E    H        H
|----------------------------------|---------------------|
|----------------------------------|---------------------|
|--------------------------12------|-14-------12---------|
|--------------------15----12------|-14-------12---------|
|--------------------15------------|-12------------------|
|--------------------13----15------|----------15---------|


   E  E      E  E  E     E     E  E    E  E      E  E  E     E     E  E
|-----0---------0--------0--------0-|-----0---------0-------------------|
|-----1---------1--------0--------0-|-----1---------1--------3--------3-|
|-----2---------2--------0--------0-|-----2---------2--------4--------4-|
|-----2---------2--------2--------2-|-----2---------2--------5--------5-|
|--0--------------------------------|--0---------------------7--------7-|
|------------------0-----------3----|------------------0-----------3----|
|
|  E.    S  +E  E  Q           E  E    E.    S  +E  E  Q           E  E
|-----------------------------------|-----------------------------------|
|-17-----------------------------18-|-17-----------------------------18-|
|-------17-(17)---------------------|-------17-(17)---------------------|
|-----------------------------------|-----------------------------------|
|-----------------------------------|-----------------------------------|
|-----------------------------------|-----------------------------------|
|
|  Q         Q     S  S  S  S  E  E    Q         Q     S  S  S  S  E  E
|-----------12----10-10-10-10-10-10-|-----------12----10-10-10-10-10-10-|
|-----------13----12-12-12-12-12-12-|-----------13----12-12-12-12-12-12-|
|-----------14----12-12-12-12-12-12-|-----------14----12-12-12-12-12-12-|
|-----------------------------------|-----------------------------------|
|-----------------------------------|-----------------------------------|
|-----------------------------------|-----------------------------------|


   E  E      E   E  E  E  E  E    E E E E E E E E
|-----0----------0-----------0-|----0---0---0---0---|
|-----1----------1-----1-----0-|----1---1---0---0---|
|-----2----------2-----2-----0-|----2---2---0---0---|
|-----2----------2-----3-----2-|----2---2---2---2---|
|--0---------------------------|--0-----------------|
|-------------------------0----|----------0---3-----|
|
|  E.    S  +E   E  E  E  E  E    H       H
|------------------------------|--------------------|
|-17------------------15-------|--------------------|
|-------17-(17)-17-17----16----|--------------------|
|---------------------------17-|-19-----------------|
|------------------------------|--------------------|
|------------------------------|--------------------|
|
|  Q         Q      Q     Q       W
|-----------12-----------------|--------------------|
|-----------13-----13----15----|-17-----------------|
|-----------14-----14----16----|-17-----------------|
|------------------15----17----|-19-----------------|
|------------------------------|--------------------|
|------------------------------|--------------------|


    E  E E E E E E E   E E     E   E     E  E  E  E
|------0---0---0---0-|---0---------0--------0-----0-|
|------1---1---0---0-|---1---------1--------0-----0-|
|------2---2---0---0-|---2---------2--------0-----0-|
|------2---2---2---2-|---2---------2--------2-----2-|
|---0----------------|-0----------------------------|
|------------0---3---|-------------------0-----3----|
|
|   W                  E S  S  E   E     E  E  E  E
|--------------------|------------------------------|
|--------------------|------------------------------|
|--------------------|------------------------------|
|--------------------|-----19-19--21----22-21-19-17-|
|--------------------|------------------------------|
|--------------------|------------------------------|
|
|  +H        H         Q       E.     S  E  E  Q
|--------------------|------------------------------|
|-(17)---------------|--------17-----17----17-------|
|-(17)---------------|--------17-----17----17-------|
|-(19)---------------|--------19-----19----19-------|
|--------------------|------------------------------|
|--------------------|------------------------------|


    E      E  E  E      E     E    E E   E E  E   E      E   E  E E
|----------0-----0------------0------0-|---0------0----------0----0-----|
|----------1-----1------------0------0-|---1------1----------0----0-----|
|----------2-----2------------0------0-|---2------2----------0----0-----|
|----------2-----2------------2------2-|---2------2----------2----2-----|
|---0----------------------------------|-0------------------------------|
|-----------------------0----------3---|-----------------0------3-------|
|
|  +S   E.    Q        +S  S  E    Q     Q    E   S  S  +E   E  E S  S
|--------------------------------------|--------------------------------|
|--------------------------------------|----------------------------15--|
|--------------------------------------|-----17--16-17-(17)-16-17-------|
|-(17)-19------------------------------|--------------------------------|
|------------19-------(19)-------------|--------------------------------|
|--------------------------------------|--------------------------------|
|
|   Q         E.    S   E     S S  Q     Q    E.     S   E   E  Q
|--------------------------------------|--------------------------------|
|------------17----17--------17---15---|-----17-----17------17----------|
|------------17----17--------17---16---|-----17-----17------17----------|
|------------19----19--------19---17---|-----19-----19------19----------|
|--------------------------------------|--------------------------------|
|--------------------------------------|--------------------------------|


    E   E   E  E      E     E    E E   E E  E   E     E   E      E   E
|-------0------0------------0------0-|---0------0---------0----------0-|
|-------1------1------------0------0-|---1------1---------0----------0-|
|-------2------2------------0------0-|---2------2---------0----------0-|
|-------2------2------------2------2-|---2------2---------2----------2-|
|---0--------------------------------|-0-------------------------------|
|---------------------0----------3---|----------------0----------3-----|
|
|  +E   E  +Q        +S  S  E    Q     Q    E   E     E.     S  +E   E
|------------------------------------|-----15--13----12-----10-(10)-15-|
|-(15)-17-(17)------(17)-------------|---------------------------------|
|------------------------------------|---------------------------------|
|------------------------------------|---------------------------------|
|------------------------------------|---------------------------------|
|------------------------------------|---------------------------------|
|
|   Q       E.    S   E     S S  Q     Q    E.     S  E   E      Q
|------------------------------------|---------------------------------|
|----------17----17--------17---15---|-----17-----17-----17------------|
|----------17----17--------17---16---|-----17-----17-----17------------|
|----------19----19--------19---17---|-----19-----19-----19------------|
|------------------------------------|---------------------------------|
|------------------------------------|---------------------------------|


   E  E   E      E      E   E    E E
|-----0----------0----------0------0--|
|-----1----------1----------0------0--|
|-----2----------2----------0------0--|
|-----2----------2----------2------2--|
|--0----------------------------------|
|-----------------------0--------3----|
|
|  E  E  +S   E.       +Q        Q
|-13-12-(12)-10-------(10)------------|
|-------------------------------------|
|-------------------------------------|
|-------------------------------------|
|-------------------------------------|
|-------------------------------------|
|
|  Q      E.        S   E   S S  Q
|-------------------------------------|
|--------17--------17------17---15----|
|--------17--------17------17---16----|
|--------19--------19------19---17----|
|-------------------------------------|
|-------------------------------------|


  E E  E  E     E   E  E    E        E   E   E   E     E     E     E     E
|---0-----0---------0-------0----|-------0-------0-----------0-----------0----|
|---1-----1---------0-------0----|-------1-------1-----------1-----------1----|
|---2-----2---------0-------0----|-------2-------2-----------2-----------2----|
|---2-----2---------2-------2----|-------2-------2-----------2-----------2----|
|-0------------------------------|---0-----------------0----------------------|
|---------------0------3---------|--------------------------------------------|
|
| E E  E  S  S +E   E +S  E    S    +E   E  +Q         H
|---8--8--7--8-(8)--7-(7)-8---10-|-(10)-12-(12)-------------------------------|
|--------------------------------|--------------------------------------------|
|--------------------------------|--------------------------------------------|
|--------------------------------|--------------------------------------------|
|--------------------------------|--------------------------------------------|
|--------------------------------|--------------------------------------------|
|
| Q    E.    S  E   E  Q             Q       E   S  S  S  S  S  S  S  S  S  S
|--------------------------------|----------15--------13-------13-------------|
|-----17----17-----17------------|--------------15-13----15-13----15-13-11----|
|-----17----17-----17------------|-----------------------------------------12-|
|-----19----19-----19------------|--------------------------------------------|
|--------------------------------|--------------------------------------------|
|--------------------------------|--------------------------------------------|


   E  S S  E  E  E E      E   E     E     S  S   E      E   E  S S  E  S S
|-----1-------------------------|------------------------------------------|
|-----1-------1----1----------1-|---------3-------------3------3-------3---|
|-----2-------2----2----------2-|---------4-------------4------4-------4---|
|-------------3----3----------3-|---------5-------------5------5-------5---|
|-------------------------0-----|------------------------------------------|
|----------0-----1--------------|---3-----------------------3--------------|
|
|  E  E    E  E  E S  S  +E   E    +S   E    S  +S   E.    +E  E    Q
|----13---13-12-----------------|------12---10-(10)-10----(10)-------------|
|---------------13--------------|------------------------------------------|
|--------------------14-(14)-14-|-(14)-------------------------------------|
|-------------------------------|------------------------------------------|
|-------------------------------|------------------------------------------|
|-------------------------------|------------------------------------------|
|
|  Q       Q     Q        Q         H                      +Q       E  E
|-------------------------------|------------------------------------------|
|-------------------------------|------------------------------------------|
|------------------------14-----|--12---------------------(12)-------------|
|-12------14----15--------------|-------------------------------------12---|
|-------------------------------|----------------------------------14------|
|-------------------------------|------------------------------------------|


   E  S S  E  E  E E      E  E    E  E      E   E   E    E Q
|-----1------------------------|--------------------------------|
|-----1-------1----1---------1-|--3--3------3---3---3-----------|
|-----2-------2----2---------2-|--4--4------4---4---4-----------|
|-------------3----3---------3-|--5--5------5---5---5-----------|
|-------------------------0----|--------------------------------|
|----------0-----1-------------|--3--3------3---3---3-----------|
|
|  E  E    E  E  E S  S  +Q       E.    S  +E   E  +S  S E E  E
|----13---12-------------------|-12----13-(13)---------------13-|
|------------13-13-------------|---------------15-(15)----------|
|--------------------14-(14)---|--------------------------------|
|------------------------------|--------------------------------|
|------------------------------|--------------------------------|
|------------------------------|--------------------------------|
|
|  Q       Q     Q        Q       H                 H
|------------------------------|--------------------------------|
|------------------------------|--------------------------------|
|------------------------14----|-12-----------------------------|
|-12------14----15-------------|--------------------------------|
|------------------------------|--------------------------------|
|------------------------------|--------------------------------|


   E  E      E   E   E  E E  E    E  E      E   E   E  E E  E
|-----0----------0------0----0-|-----0----------0-------------|
|-----1----------1------0----0-|-----1----------1------3----3-|
|-----2----------2------0----0-|-----2----------2------4----4-|
|-----2----------2------2----2-|-----2----------2------5----5-|
|--0---------------------------|--0--------------------7----7-|
|--------------------0----3----|--------------------0----3----|
|
|  E.    S  +E   E   Q    E  E    E.    S  +E   E   Q    E  E
|-12------------------------13-|-12------------------------13-|
|-------13-(13)----------------|-------13-(13)----------------|
|------------------------------|------------------------------|
|------------------------------|------------------------------|
|------------------------------|------------------------------|
|------------------------------|------------------------------|
|
|  Q         E   E  +H            Q         E   E  +H
|------------------------------|------------------------------|
|------------------------------|------------------------------|
|---------------14-(14)--------|---------------14-(14)--------|
|---------------14-(14)--------|---------------14-(14)--------|
|---------------12-(12)--------|---------------12-(12)--------|
|------------------------------|------------------------------|


   E  E      E   E  E  E  E  E        E  E E E   E    E E E   E E E E E E E E
|-----0----------0-----------0----|------0---0--------0---0-|---0---0---0---0-|
|-----1----------1-----1-----0----|------1---1--------0---0-|---1---1---0---0-|
|-----2----------2-----2-----0----|------2---2--------0---0-|---2---2---0---0-|
|-----2----------2-----3-----2----|------2---2--------2---2-|---2---2---2---2-|
|--0------------------------------|---0---------------------|-----------------|
|-------------------------0-------|-------------------------|-----------------|
|
|  E.    S  +E   E  E  E  E  S  S    +H         +S  S E Q     W
|-12------------------------------|-------------------------|-----------------|
|-------13-(13)-13-13-15----------|-------------------------|-----------------|
|------------------------16-------|-------------------------|-----------------|
|---------------------------17-19-|-(19)-------(19)---------|-----------------|
|---------------------------------|-------------------------|-----------------|
|---------------------------------|-------------------------|-----------------|
|
|  H                H                 H         +E    E Q     W
|---------------------------------|-------------------------|-----------------|
|---------------------------------|-------------------------|-----------------|
|-14---------------12-------------|--14--------(14)---------|-----------------|
|-14---------------12-------------|--14--------(14)---------|-----------------|
|-12------------------------------|--12--------(12)---------|-----------------|
|------------------15-------------|-------------------------|-----------------|


  E E  E      E     E     E     E     E
|---0---------0-----------0-----------0----|
|---1---------1-----------0-----------0----|
|---2---------2-----------0-----------0----|
|---2---------2-----------2-----------2----|
|-0----------------------------------------|
|-------------------0-----------3----------|
|
| Gtr III
| Q    E.        S  E     E     Q
|-----12--------12-------12----------------|
|-----13--------13-------13----------------|
|-----14--------14-------14----------------|
|------------------------------------------|
|------------------------------------------|
|------------------------------------------|
|
| Gtr IV
| Q    S   S  S  S  S  S  S  S  S  S  S  S
|---------15----15-15----15-15----15-15-15-|
|-----17-----17----17-17----17-17----17-17-|
|-----20-----------------------------------|
|------------------------------------------|
|------------------------------------------|
|------------------------------------------|


   E E   E     E     E  E      E   E    E  E  E  E    E  E E E
|----0---------0--------0----------0-|-----0-----0-------0---0--|
|----1---------1--------0----------0-|-----1-----1-------0---0--|
|----2---------2--------0----------0-|-----2-----2-------0---0--|
|----2---------2--------2----------2-|-----2-----2-------2---2--|
|--0---------------------------------|--0-----------------------|
|--------------------0---------3-----|----------------0----3----|
|
|  Q     E.       S  E  S  S   Q        Q     E.    S E  E Q
|-------12-------12----12-----10-----|-------12----12---12------|
|-------13-------13----13-----12-----|-------13----13---13------|
|-------14-------14----14-----12-----|-------14----14---14------|
|------------------------------------|--------------------------|
|------------------------------------|--------------------------|
|------------------------------------|--------------------------|
|
|  Q    +S  S  S  S  E  S  S  +E   E    Q.       E    H
|-15---(15)--------------------------|--------------------------|
|-17---(17)---16----16---------------|--------------------------|
|-------------19----19----17-(17)-17-|--------------------------|
|------------------------------------|-19-----------------------|
|------------------------------------|-23-----------------------|
|------------------------------------|--------------------------|


  E E  E  E    E  E    E E    E     E   E   E     E  E     E E
|---0-----0-------0------0-|--------0-------0--------0-------0-|
|---1-----1-------0------0-|--------1-------1--------0-------0-|
|---2-----2-------0------0-|--------2-------2--------0-------0-|
|---2-----2-------2------2-|--------2-------2--------2-------2-|
|-0------------------------|--0--------------------------------|
|--------------0-------3---|----------------------0--------3---|
|
| Q    E.    S E  S S  Q      Q         E.     S  E  E     Q
|-----12----12---12---10---|-----------12-----12----12---------|
|-----13----13---13---12---|-----------13-----13----13---------|
|-----14----14---14---12---|-----------14-----14----14---------|
|--------------------------|-----------------------------------|
|--------------------------|-----------------------------------|
|--------------------------|-----------------------------------|
|
| W                           S  E.    +E   S  S  E  S  S  Q
|--------------------------|-19--------------------------------|
|--------------------------|-19-20----(20)---------------------|
|--------------------------|---------------21-21-21-21-21-21---|
|--------------------------|-----------------------------------|
|--------------------------|-----------------------------------|
|--------------------------|-----------------------------------|


   E    E  E   E     E  E      E   E    E  E      E   E      E   E E E
|-------0------0--------0----------0-|-----0----------0----------0---0---|
|-------1------1--------0----------0-|-----1----------1----------0---0---|
|-------2------2--------0----------0-|-----2----------2----------0---0---|
|-------2------2--------2----------2-|-----2----------2----------2---2---|
|--0---------------------------------|--0--------------------------------|
|--------------------0---------3-----|-----------------------0-----3-----|
|
|  Q       E.     S  E  S  S   Q        Q         E.     S   E   E Q
|---------12-----12----12-----10-----|-----------12-----12------12-------|
|---------13-----13----13-----12-----|-----------13-----13------13-------|
|---------14-----14----14-----12-----|-----------14-----14------14-------|
|------------------------------------|-----------------------------------|
|------------------------------------|-----------------------------------|
|------------------------------------|-----------------------------------|
|
|  S S  E  E   E     E  S  S  +E   E    E.    S  +E   E     +H
|-17---19-----------17---------------|-----------------------------------|
|-21------20--22----16----15-(15)-13-|-12----13-(13)---------------------|
|-------------------19---------------|---------------14----(14)----------|
|------------------------------------|-----------------------------------|
|------------------------------------|-----------------------------------|
|------------------------------------|-----------------------------------|


    E  E  E  E      E   E    E E   E E  E  E    E  E E E
|------0-----0----------0------0-|---0-----0-------0---0-|
|------1-----1----------0------0-|---1-----1-------0---0-|
|------2-----2----------0------0-|---2-----2-------0---0-|
|------2-----2----------2------2-|---2-----2-------2---2-|
|---0----------------------------|-0---------------------|
|-------------------0--------3---|--------------0----3---|
|
|   Q     E.    S   E   S S  Q     Q    E.    S E  E Q
|--------12----12------12---10---|-----12----12---12-----|
|--------13----13------13---12---|-----13----13---13-----|
|--------14----14------14---12---|-----14----14---14-----|
|--------------------------------|-----------------------|
|--------------------------------|-----------------------|
|--------------------------------|-----------------------|
|
|  +H              +Q        Q     W
|--------------------------------|-----------------------|
|--------------------------------|-----------------------|
|-(14)------------(14)-----------|-----------------------|
|--------------------------------|-----------------------|
|--------------------------------|-----------------------|
|--------------------------------|-----------------------|


  E E  E  E    E  E    E E   E E  E  E    E  E E E
|---0-----0-------0------0-|---0-----0-------0---0-|
|---1-----1-------0------0-|---1-----1-------0---0-|
|---2-----2-------0------0-|---2-----2-------0---0-|
|---2-----2-------2------2-|---2-----2-------2---2-|
|-0------------------------|-0---------------------|
|--------------0-------3---|--------------0----3---|
|
| Q    E.    S E  S S  Q     Q    E.    S E  E Q
|-----12----12---12---10---|-----12----12---12-----|
|-----13----13---13---12---|-----13----13---13-----|
|-----14----14---14---12---|-----14----14---14-----|
|--------------------------|-----------------------|
|--------------------------|-----------------------|
|--------------------------|-----------------------|
|
| W                          W
|--------------------------|-----------------------|
|--------------------------|-----------------------|
|--------------------------|-----------------------|
|--------------------------|-----------------------|
|--------------------------|-----------------------|
|--------------------------|-----------------------|


  E E  E  E    E  E    E E   E E  E   E      E   E  E  E
|---0-----0-------0------0-|---0------0----------0-----0-|
|---1-----1-------0------0-|---1------1----------0-----0-|
|---2-----2-------0------0-|---2------2----------0-----0-|
|---2-----2-------2------2-|---2------2----------2-----2-|
|-0------------------------|-0---------------------------|
|--------------0-------3---|-----------------0------3----|
|
| Gtr II
| W                          Q    E   S  S  +E   E  E  E
|--------------------------|-----------------------------|
|--------------------------|-----------------------------|
|--------------------------|-----------------------------|
|--------------------------|-----19--21-22-(22)-21-19-17-|
|--------------------------|-----------------------------|
|--------------------------|-----------------------------|
|
| Gtr III
| Q    E.    S E  S S  Q     Q    E.     S   E   E  Q
|-----12----12---12---10---|-----12-----12------12-------|
|-----13----13---13---12---|-----13-----13------13-------|
|-----14----14---14---12---|-----14-----14------14-------|
|--------------------------|-----------------------------|
|--------------------------|-----------------------------|
|--------------------------|-----------------------------|


   E  E      E  E    E  E    E E   E E  E   E     E  E  E  E
|-----0---------0-------0------0-|---0------0--------0-----0---|
|-----1---------1-------0------0-|---1------1--------0-----0---|
|-----2---------2-------0------0-|---2------2--------0-----0---|
|-----2---------2-------2------2-|---2------2--------2-----2---|
|--0-----------------------------|-0---------------------------|
|--------------------0-------3---|----------------0-----3------|
|
|  E.    S  +Q       H             Q    E   E     E  E  E  E
|--------------------------------|-----------------------------|
|--------------------------------|------------------------15---|
|--------------------------------|-----17--16----17-16-17------|
|-19-----------------------------|-----------------------------|
|-------19-(19)------------------|-----------------------------|
|--------------------------------|-----------------------------|
|
|  Q         E.    S E  S S  Q     Q    E.     S  E  E  Q
|-----------12----12---12---10---|-----12-----12----12---------|
|-----------13----13---13---12---|-----13-----13----13---------|
|-----------14----14---14---12---|-----14-----14----14---------|
|--------------------------------|-----------------------------|
|--------------------------------|-----------------------------|
|--------------------------------|-----------------------------|


   E  E  E  E    E  E    E E   E E  E   E      E     E  E  E
|-----0-----0-------0------0-|---0------0------------0-----0-|
|-----1-----1-------0------0-|---1------1------------0-----0-|
|-----2-----2-------0------0-|---2------2------------0-----0-|
|-----2-----2-------2------2-|---2------2------------2-----2-|
|--0-------------------------|-0-----------------------------|
|----------------0-------3---|-----------------0--------3----|
|
|  Q.       E    H             Q    E   S  S  +S  S  E  E  E
|----------------------------|-----15--13-12-(12)---10-15-13-|
|-17-------------------------|-------------------------------|
|----------------------------|-------------------------------|
|----------------------------|-------------------------------|
|----------------------------|-------------------------------|
|----------------------------|-------------------------------|
|
|  Q     E.    S E  S S  Q     Q    E.     S   E     E  Q
|-------12----12---12---10---|-----12-----12--------12-------|
|-------13----13---13---12---|-----13-----13--------13-------|
|-------14----14---14---12---|-----14-----14--------14-------|
|----------------------------|-------------------------------|
|----------------------------|-------------------------------|
|----------------------------|-------------------------------|


   E  E  E   E      E   E    E E   E E  E  E    E  E E  E
|-----0------0----------0------0-|---0-----0-------0----0---|
|-----1------1----------0------0-|---1-----1-------0----0---|
|-----2------2----------0------0-|---2-----2-------0----0---|
|-----2------2----------2------2-|---2-----2-------2----2---|
|--0-----------------------------|-0------------------------|
|-------------------0--------3---|--------------0----3------|
|
|  Q.        E     +Q        Q     Q    E  E    E  E E  E
|-12--------10----(10)-----------|------8--7----8--7-8-10---|
|--------------------------------|--------------------------|
|--------------------------------|--------------------------|
|--------------------------------|--------------------------|
|--------------------------------|--------------------------|
|--------------------------------|--------------------------|
|
|  Q     E.     S   E   S S  Q     Q    E.    S E  E Q
|-------12-----12------12---10---|-----12----12---12--------|
|-------13-----13------13---12---|-----13----13---13--------|
|-------14-----14------14---12---|-----14----14---14--------|
|--------------------------------|--------------------------|
|--------------------------------|--------------------------|
|--------------------------------|--------------------------|


    E      E   E  E    H      +H     Q   Q       Q     Q     H
|----------0------0----0----|-(0)----1---0----|--1-----0-----------------|
|----------1------1----1----|-(1)----1---1----|--1-----1-----3-----------|
|----------2------2----2----|-(2)----2---0----|--2-----2-----4-----------|
|----------2------2----2----|-(2)-------------|--------------5-----------|
|---0------------------0----|-(0)-------------|--------0-----------------|
|---------------------------|------------0----|--1-----------3-----------|
|
|  +S   E.    +Q       H       H     Q   E  E    E  E  E  E  H
|-(10)-12----(12)-----------|-----------13-12-|-------12-10-10-----------|
|---------------------------|-----------------|-13-----------------------|
|---------------------------|-----------------|----14--------------------|
|---------------------------|-----------------|--------------------------|
|---------------------------|-----------------|--------------------------|
|---------------------------|-----------------|--------------------------|
|
|                                               Gtr IV
|   Q          E.    S H       W                 H           Q   S  E  S
|-------------12----12------|-----------------|-----------------14-15-15-|
|-------------13----13------|-----------------|-----------------------18-|
|-------------14----14------|-----------------|--------------------------|
|---------------------------|-----------------|--------------------------|
|---------------------------|-----------------|--------------------------|
|---------------------------|-----------------|--------------------------|


  +W
|----------------------------------------------|
|-(3)------------------------------------------|
|-(4)------------------------------------------|
|-(5)------------------------------------------|
|----------------------------------------------|
|-(3)------------------------------------------|
|
|  W
|----------------------------------------------|
|----------------------------------------------|
|----------------------------------------------|
|----------------------------------------------|
|----------------------------------------------|
|----------------------------------------------|
|
|  S   S  S  S  S  S  S  S  S  S S  S  +S   E.
|----------------------------------------------|
|-14--15----15---------------------------------|
|-17-----16-18-16------------------------------|
|--------20----20-15-17-15---------------------|
|--------------------20-17-16-14-----------17--|
|--------------------------20-18---15-(15)-21--|


    Q     Q       Q     Q        Q           Q     +H
|---------5-------3-----1----|---0-------------------------|
|---------6-------5-----1----|---1-----------3-----(3)-----|
|---------5-------5-----2----|---2-----------4-----(4)-----|
|----------------------------|---------------5-----(5)-----|
|----------------------------|---0-------------------------|
|-----------------0-----1----|---------------3-----(3)-----|
|
|   H             E  E  E  E    +S   S  S S  E  E  +Q   Q
|----------------13-12-------|------15-13---12-10-(10)-----|
|----------------------13----|-----------------------------|
|-------------------------14-|-(14)------------------------|
|----------------------------|-----------------------------|
|----------------------------|-----------------------------|
|----------------------------|-----------------------------|
|
|  +Q    +S  S E  H              W
|----------------------------|-----------------------------|
|----------------------------|-----------------------------|
|----------------------------|-----------------------------|
|----------------------------|-----------------------------|
|-(17)--(17)-----------------|-----------------------------|
|-(21)--(21)-----------------|-----------------------------|


  +Q      E  E    E  E      E  E   E  E  E  E    E  E      E  E
|------------0-------0---------0-|----0-----0-------0-----------|
|-(3)--------1-------1---------0-|----0-----1-------1---------3-|
|-(4)--------2-------2---------0-|----0-----2-------2---------4-|
|-(5)--------2-------2---------2-|----2-----2-------2---------5-|
|---------0----------------------|-------0--------------------7-|
|-(3)-----------------------0----|-3-----------------------0----|
|
|  E   E  E.    S H                E  E  E.    S H
|-----13-12----------------------|---13-12----------------------|
|--------------13----------------|------------13----------------|
|--------------------------------|------------------------------|
|--------------------------------|------------------------------|
|--------------------------------|------------------------------|
|--------------------------------|------------------------------|
|
| Gtr III
|  H              E  S  S  +Q      H             E  S  S  +Q
|--------------------------------|------------------------------|
|----------------------10-(10)---|--------------------10-(10)---|
|-----------------------9--(9)---|---------------------9--(9)---|
|-------------------10-----------|-----------------10-----------|
|-------------------12-----------|-----------------12-----------|
|--------------------------------|------------------------------|


  E  E  E  E    E  E    E  E    E     E  E    E   E  E E E
|----------0-------0---------|--------0-------0------0------|
|----3-----1-------1-------1-|--------0-------1------1---3--|
|----4-----2-------2-------2-|--------0-------2------2---4--|
|----5-----2-------2-------3-|--------2------------------5--|
|----7--0--------------------|------------------------------|
|-3--------------------------|--0--------1-------------3----|
|
| E  E  E.    S E  S S  E  E    E     E  Q       +E  E Q
|---13-12--------------------|------------------------------|
|------------13---13---13-15-|------------------------------|
|----------------------------|-16---------------------------|
|----------------------------|-------17-19------(19)--------|
|----------------------------|------------------------------|
|----------------------------|------------------------------|
|
| W                             S E.     S E.    +H
|----------------------------|-------------5-----(5)--------|
|----------------------------|----8-------------------------|
|----------------------------|-----------9------------------|
|----------------------------|-12--------7------------------|
|----------------------------|-10---------------------------|
|----------------------------|------------------------------|


  E  E  E E  E   E    E  E   E  E  E  E    E E    E  E
|---------0------0-------0-|----0-----0------0---------|
|----3----1------1-------0-|----0-----1------1-------3-|
|----4----2------2-------0-|----0-----2------2-------4-|
|----5----2------2-------2-|----2-----2------2-------5-|
|-------0------------------|-------0-----------------7-|
|---------------------0----|-3--------------------0----|
|
| E  E  Q    S S E    Q      E  E  E.    S H
|--------------------------|---------------------------|
|---18-17------------------|---18-17-------------------|
|-----------17-------------|------------17-------------|
|--------------------------|---------------------------|
|--------------------------|---------------------------|
|--------------------------|---------------------------|
|
| H          E   S S +Q      H             E S S +Q
|------------------5-(5)---|-------------------5-(5)---|
|------------------5-(5)---|-------------------5-(5)---|
|----------------5---------|-----------------5---------|
|----------------7---------|-----------------7---------|
|--------------------------|---------------------------|
|--------------------------|---------------------------|


  E  E  E  E    E  E    E  E    E     E  E    E   E  E E E
|----------0-------0---------|--------0-------0------0------|
|----3-----1-------1-------1-|--------0-------1------1---3--|
|----4-----2-------2-------2-|--------0-------2------2---4--|
|----5-----2-------2-------3-|--------2------------------5--|
|----7--0--------------------|------------------------------|
|-3--------------------------|--0--------1-------------3----|
|
| E  E  E.    S E  S S  E  E    E     E  Q       +E  E Q
|----------------------------|------------------------------|
|---18-17-----------------15-|------------------------------|
|------------17---17---17----|-16---------------------------|
|----------------------------|-------17-19------(19)--------|
|----------------------------|------------------------------|
|----------------------------|------------------------------|
|
| W                             S E.     S E.    +H
|----------------------------|----3--------5-----(5)--------|
|----------------------------|-----------5------------------|
|----------------------------|--7--------2------------------|
|----------------------------|--5---------------------------|
|----------------------------|------------------------------|
|----------------------------|------------------------------|


  E  E  E  E    E E    E  E   E  E  E  E    E E    E  E
|----------0------0-------0-|----0-----0------0---------|
|----3-----1------1-------0-|----0-----1------1-------3-|
|----4-----2------2-------0-|----0-----2------2-------4-|
|----5-----2------2-------2-|----2-----2------2-------5-|
|-------0-------------------|-------0-----------------7-|
|----------------------0----|-3--------------------0----|
|
| E  E  E.    S H             E  E  E.    S H
|---------------------------|---------------------------|
|---18-17-------------------|---18-17-------------------|
|------------17-------------|------------17-------------|
|---------------------------|---------------------------|
|---------------------------|---------------------------|
|---------------------------|---------------------------|
|
| H             E S S +Q      H             E S S +Q
|-------------------5-(5)---|-------------------5-(5)---|
|-------------------5-(5)---|-------------------5-(5)---|
|-----------------5---------|-----------------5---------|
|-----------------7---------|-----------------7---------|
|---------------------------|---------------------------|
|---------------------------|---------------------------|


  E  E  E  E    E  E    E  E    E     E  Q     +H
|----------0-------0---------|--------0-------------------|
|----3-----1-------1-------1-|--------0--1-----(1)--------|
|----4-----2-------2-------2-|--------0--2-----(2)--------|
|----5-----2-------2-------3-|--------2--3-----(3)--------|
|----7--0--------------------|----------------------------|
|-3--------------------------|--0-------------------------|
|
| E  E  E.    S E  S S  E  E    E     E  Q     +E  E Q
|----------------------------|----------------------------|
|---18-17-----------------15-|----------------------------|
|------------17---17---17----|-16-------------------------|
|----------------------------|-------17-19----(19)--------|
|----------------------------|----------------------------|
|----------------------------|----------------------------|
|
| W                             S E.     S E.  +H
|----------------------------|----3--------5---(5)--------|
|----------------------------|-----------5----------------|
|----------------------------|--7--------2----------------|
|----------------------------|--5-------------------------|
|----------------------------|----------------------------|
|----------------------------|----------------------------|


  +H.                   Q    +W
|--------------------------|---------------------|
|-(1)-------------------3--|-(3)-----------------|
|-(2)-------------------4--|-(4)-----------------|
|-(3)-------------------5--|-(5)-----------------|
|--------------------------|---------------------|
|--------------------------|---------------------|
|
|  Q   E S  S  +S   E.  Q     H     E S  S  +Q
|--------------------------|---------------------|
|----------20-(20)-18--17--|-15---------13-(13)--|
|--------------------------|---------------------|
|--------------------------|---------------------|
|--------------------------|---------------------|
|--------------------------|---------------------|


   +H            H       +W
|----------------0----|--(0)-----------------|
|--(3)-----------2----|--(2)-----------------|
|--(4)-----------2----|--(2)-----------------|
|--(5)----------------|----------------------|
|---------------------|----------------------|
|---------------------|----------------------|
|
|  +E   E  +Q    H       +H      +S  S E Q
|---------------------|----------------------|
|-(13)-15-(15)--17----|-(17)----(17)---------|
|---------------------|----------------------|
|---------------------|----------------------|
|---------------------|----------------------|
|---------------------|----------------------|


  +W           +W           +Q   Q  H
|-(0)--------|-(0)--------|-(0)----------*|
|-(2)--------|-(2)--------|-(2)----------*|
|-(2)--------|-(2)--------|-(2)----------*|
|------------|------------|--------------*|
|------------|------------|--------------*|
|------------|------------|--------------*|


Duration Legend
---------------
W - whole; H - half; Q - quarter; E - 8th; S - 16th; T - 32nd; X - 64th; a - acciaccatura
+ - note tied to previous; . - note dotted; .. - note double dotted
Uncapitalized letters represent notes that are staccato (1/2 duration)
Irregular groupings are notated above the duration line
Duration letters will always appear directly above the note/fret number it represents the
duration for.  Duration letters with no fret number below them represent rests.  Multi-
bar rests are notated in the form Wxn, where n is the number of bars to rest for.  Low
melody durations appear below the staff

Tablature Legend
----------------
 h   - hammer-on
 p   - pull-off
 b   - bend
 pb  - pre-bend
 r   - bend release (if no number after the r, then release immediately)
 /\  - slide into or out of (from/to "nowhere")
 s   - legato slide
 S   - shift slide
  - natural harmonic
[n]  - artificial harmonic
n(n) - tapped harmonic
 ~   - vibrato
 tr  - trill
 T   - tap
 TP  - trem. picking
 PM  - palm muting
\n/  - tremolo bar dip; n = amount to dip
 \n  - tremolo bar down
 n/  - tremolo bar up
/n\  - tremolo bar inverted dip
 =   - hold bend; also acts as connecting device for hammers/pulls
 <>  - volume swell (louder/softer)
 x   - on rhythm slash represents muted slash
 o   - on rhythm slash represents single note slash

Misc Legend
-----------
 |  - bar
||  - double bar
||o - repeat start
o|| - repeat end
*|  - double bar (ending)
 :  - bar (freetime)
 $  - Segno
 &  - Coda
Tempo markers -  = BPM(8/16=s8/s16), where s8 = swing 8ths, s16 = swing 16ths





Comments


Popular Adriano Celentano tabs & chords
Susanna Bass Tabs
L'emozione Non Ha Voce Chords
La Terza Guerra Mondiale Chords
Svalutation Chords
Un Alberto Di Trenta Piani Chords
Il Ragazzo Della Via Gluck Tabs
Azzurro Ukulele
Ce Sempre Un Motivo Ukulele
Il Ragazzo Della Via Glick Ukulele
Un Alberto Di Trenta Piani Ukulele


Song lyrics



↑ Back to top | Tablatures and chords are parodies/interpretations of the original songs. You may use it for private study, scholarship, research or language learning purposes only
© 2014 AZChords.com Contact us | Privacy policy | DMCA | Add/correct tabs | Request tabs | Top 50 tabs