» » »

Adriano Celentano, Susanna Bass tabs (ver.1)

Artists:  A B C D E F G H I J K L M N O P Q R S T U V W X Y Z # 

Susanna Bass tabs (ver.1)

Adriano Celentano Tabs
 Rating:
4/5 (4 votes)
Susanna lessons Tabs too difficult? Try these video lessons and learn fast
1
                -------------------------------------------------------------------------------
-------------------------------------------------------------------------------

Tuning: E A D G


Gtr I (E A D G) - 'Bass'

  Q=93
 4/4
  Gtr I
  W          W          W          W
|----------|----------|----------|------|
|----------|----------|----------|------|
|----------|----------|----------|------|
|----------|----------|----------|------|


  W          W          W          W
|----------|----------|----------|------|
|----------|----------|----------|------|
|----------|----------|----------|------|
|----------|----------|----------|------|


  W          W          W          W
|----------|----------|----------|------|
|----------|----------|----------|------|
|----------|----------|----------|------|
|----------|----------|----------|------|


  W          W          W          W
|----------|----------|----------|------|
|----------|----------|----------|------|
|----------|----------|----------|------|
|----------|----------|----------|------|


  W          E E Q  E E E E   Q  Q  E E E E   Q  Q  E E E E
|----------|----------------|---------------|---------------|
|----------|----------------|---------------|---------------|
|----------|-0--------------|-0-------------|-0-----5---7---|
|----------|--------0---3---|-------0---3---|---------------|


  W          +H     +Q.   E   E E Q  E E E E   E E Q  E E E E
|----------|----------------|----------------|----------------|
|-7--------|-(7)----(7)-----|----------------|----------------|
|----------|----------------|----------------|-0--------------|
|----------|----------------|-5------0---3---|--------0-0-3---|


  E E Q  E E E E   E E Q  E E E E   E E Q  E E E E   E E Q  E E E E
|----------------|----------------|----------------|----------------|
|----------------|----------------|----------------|----------------|
|-0--------------|-0--------------|-0--------------|-0--------------|
|--------0---3---|--------0-0-3---|--------0---3---|--------0-0-3---|


  E E Q  E E E E   E E Q  E E E E   Q  E E E E E E   Q  E E E E Q
|----------------|----------------|----------------|---------------|
|----------------|----------------|----------------|--------5------|
|-0--------------|-0------0-0---0-|------------0---|---------------|
|--------0---3---|----------------|----0---1-------|-3----3---3-3--|


  W          W          W          E E Q  E E E E
|----------|----------|----------|----------------|
|----------|----------|----------|----------------|
|----------|----------|----------|-0--------------|
|----------|----------|----------|--------0---3---|


  Q  Q  E E E E   Q  Q  Q  E E   H    E E E E   E E Q  E E E E
|---------------|--------------|--------------|----------------|
|---------------|--------------|--------------|----------------|
|-0-------------|-0------------|--------------|-0--------------|
|-------0-0-3---|----------0---|-1----3-3-3-3-|--------0---3---|


  Q  Q  E E E E   Q  Q  Q  E E   E E Q  E E E E   Q  Q  E E E E
|---------------|--------------|----------------|---------------|
|---------------|--------------|----------------|---------------|
|-0-------------|-0------------|-0--------------|-0-------------|
|-------0---3---|----------0---|--------0---3---|-------0---3---|


  E E Q  E E E E   E E Q  E E E E   E E Q  E E E E   E E Q  E E E E
|----------------|----------------|----------------|----------------|
|----------------|----------------|----------------|----------------|
|-0--------------|-0--------------|-0--------------|-0--------------|
|--------0---3---|--------0-0-3---|--------0---3---|--------0-0-3---|


  E E Q  E E E E   E E Q  E E E E   E E Q  E E E E   E E Q  E E E E
|----------------|----------------|----------------|----------------|
|----------------|----------------|----------------|----------------|
|-0--------------|-0--------------|-0--------------|-0------0-0---0-|
|--------0---3---|--------0-0-3---|--------0---3---|----------------|


  Q  E E E E E E   E E E S S E E E E   Q  E E E E E E   E E E E S S E Q
|----------------|-------------------|----------------|------------------|
|----------------|-------5---5-------|----------------|------------------|
|------------0---|-------------------|------------0---|------------------|
|----0---1-------|-3-3-3-------3-3---|----0---1-------|-3-3-3-3-3--------|


  E E Q  E E E E   Q  Q  E E E E   Q  Q  Q  E E   W
|----------------|---------------|--------------|------|
|----------------|---------------|--------------|------|
|-0--------------|-0-------------|-0------------|-0----|
|--------0---3---|-------0-0-3---|----------0---|------|


  +W           E E Q  E E E E   E E Q  E E E E   E E Q  E E E E
|------------|----------------|----------------|----------------|
|------------|----------------|----------------|----------------|
|-(0)--------|-0--------------|-0--------------|-0--------------|
|------------|--------0---3---|--------0-0-3---|--------0---3---|


  E E Q  E E E E   E E Q  E E E E   E E Q  E E E E   E E Q  E E E E
|----------------|----------------|----------------|----------------|
|----------------|----------------|----------------|----------------|
|-0--------------|-0--------------|-0--------------|-0--------------|
|--------0-0-3---|--------0---3---|--------0-0-3---|--------0---3---|


  E E Q  E E E E   E E Q  E E E E   E E Q  E E E E   E E Q  E E E E
|----------------|----------------|----------------|----------------|
|----------------|----------------|----------------|----------------|
|-0--------------|-0--------------|-0--------------|-0--------------|
|--------0-0-3---|--------0---3---|--------0-0-3---|--------0---3---|


  E E Q  E E E E   E E Q  E E E E   E E Q  E E E E   E E Q  E E E E
|----------------|----------------|----------------|----------------|
|----------------|----------------|----------------|----------------|
|-0--------------|-0--------------|-0--------------|-0--------------|
|--------0-0-3---|--------0---3---|--------0-0-3---|--------0---3---|


  E E Q  E E E E   E E Q  E E E E   E E Q  E E E E   E E Q  E E E E
|----------------|----------------|----------------|----------------|
|----------------|----------------|----------------|----------------|
|-0--------------|-0--------------|-0--------------|-0--------------|
|--------0-0-3---|--------0---3---|--------0-0-3---|--------0---3---|


  E E E E H      +H     H      W          W
|--------------|-------------|----------|------|
|--------------|-------------|----------|------|
|-0-----0-0----|-(0)---------|----------|------|
|--------------|-------------|----------|------|


  W          W          Q  E E Q  E E   E E Q  Q  E E
|----------|----------|---------------|---------------|
|----------|----------|---------------|---------------|
|----------|----------|----0----------|-----0---------|
|----------|----------|-----------0---|-3---------0-0-|


  E E Q  H      E E Q  +S  S E E E   E E E E Q  E E   E E Q  Q  E E
|-------------|--------------------|----------------|----------------|
|-------------|--------------------|----------------|----------------|
|-----0-------|--------------------|-----0----------|-----0----------|
|-3-----------|-0---1--(1)---1-3-3-|-3-3--------0---|-3---------0-0--|


  E E Q  H      E E Q  +S  S E E E   E E E E Q  E E   E E Q  Q  E E
|-------------|--------------------|----------------|----------------|
|-------------|--------------------|----------------|----------------|
|-----0-------|--------------------|-----0----------|-----0----------|
|-3-----------|-0---1--(1)---1-3-3-|-3-3--------0---|-3---------0-0--|


  E E Q  H      E E Q  +H       +H.      Q    +W
|-------------|---------------|-------------|--------|
|-------------|---------------|-------------|--------|
|-----0-------|---------------|-------------|--------|
|-3-----------|-0---1--(1)----|-(1)------3--|-(3)----|


  +Q   Q  H      +W           +W           +W
|--------------|------------|------------|--------|
|--------------|------------|------------|--------|
|---------0----|-(0)--------|-(0)--------|-(0)----|
|-(3)----------|------------|------------|--------|


  +Q   Q  H
|--------------*|
|--------------*|
|-(0)----------*|
|--------------*|


Duration Legend
---------------
W - whole; H - half; Q - quarter; E - 8th; S - 16th; T - 32nd; X - 64th; a - acciaccatura
+ - note tied to previous; . - note dotted; .. - note double dotted
Uncapitalized letters represent notes that are staccato (1/2 duration)
Irregular groupings are notated above the duration line
Duration letters will always appear directly above the note/fret number it represents the
duration for.  Duration letters with no fret number below them represent rests.  Multi-
bar rests are notated in the form Wxn, where n is the number of bars to rest for.  Low
melody durations appear below the staff

Tablature Legend
----------------
 h   - hammer-on
 p   - pull-off
 b   - bend
 pb  - pre-bend
 r   - bend release (if no number after the r, then release immediately)
 /\  - slide into or out of (from/to "nowhere")
 s   - legato slide
 S   - shift slide
  - natural harmonic
[n]  - artificial harmonic
n(n) - tapped harmonic
 ~   - vibrato
 tr  - trill
 T   - tap
 TP  - trem. picking
 PM  - palm muting
\n/  - tremolo bar dip; n = amount to dip
 \n  - tremolo bar down
 n/  - tremolo bar up
/n\  - tremolo bar inverted dip
 =   - hold bend; also acts as connecting device for hammers/pulls
 <>  - volume swell (louder/softer)
 x   - on rhythm slash represents muted slash
 o   - on rhythm slash represents single note slash

Misc Legend
-----------
 |  - bar
||  - double bar
||o - repeat start
o|| - repeat end
*|  - double bar (ending)
 :  - bar (freetime)
 $  - Segno
 &  - Coda
Tempo markers -  = BPM(8/16=s8/s16), where s8 = swing 8ths, s16 = swing 16ths
            
Submit corrections

comments powered by Disqus
↑ Back to top | Adriano Celentano Bass for Susanna. Lyrics for acoustic guitar and electric guitar. 1 Tablatures and chords are parodies/interpretations of the original songs. You may use it for private study, scholarship, research or language learning purposes only