>
 >
No Friends

No Friends Guitar Tabs

Adolescents - No Friends chords, tabs, tablatures, lyrics

Guitar lessons | Add/correct | Request | Top 50 tabs Artists:  A B C D E F G H I J K L M N O P Q R S T U V W X Y Z 0-9

No Friends Guitar Tabs – Adolescents

CD, Sheet music, Poster

Do you like No Friends? Share with your friends now
Bass TabsTabs

    Verse (Yes, it's very easy, just a good ole A chord a few times): 
    A 
E|----------------------- 
B|----------------------- 
G|--2-------------------- 
D|--2-------------------- 
A|--0-------------------- 
E|----------------------- 

    Chorus: 
   A#          C            A 
E|--------------------------------------- 
B|--------------------------------------- 
G|-3--3--3--3--5--5--5--5---2------------ 
D|-3--3--3--3--5--5--5--5---2------------ 
A|-1--1--1--1--3--3--3--3---0------------ 
E|--------------------------------------- 

    Post-Chorus?: 
    G             A   G           F            E 
E|--------------------------------------------------------- 
B|--------------------------------------------------------- 
G|----------------2----------------------------1----------- 
D|--5--5----5--5--2---5--5--5--5--3--3--3--3---2----------- 
A|--5--5----5--5--0---5--5--5--5--3--3--3--3---2----------- 
E|--3--3----3--3------3--3--3--3--1--1--1--1---0----------- 

    No way I'll touch the solo. Here you give it a try. I know the scale 
    is this (A minor pentatonic): 

E|---------------------------5--8------------------------- 
B|----------------------5--8------------------------------ 
G|-----------------5--7----------------------------------- 
D|------------5--7---------------------------------------- 
A|-------5--7--------------------------------------------- 
E|--5--8--------------------------------------------------





Comments


Popular Adolescents tabs & chords
Amoeba Bass Tabs
I Hate Children Bass Tabs
I Hate Children 1 Bass Tabs
No Friends Bass Tabs
Self Destruct 1 Bass Tabs
Creatures Tabs
I Hate Children Tabs
Lockdown America Intro Tabs
Oc Confidential Intro Tabs
Self Destruct Tabs


Song lyrics



↑ Back to top | Tablatures and chords are parodies/interpretations of the original songs. You may use it for private study, scholarship, research or language learning purposes only
© 2014 AZChords.com Contact us | Privacy policy | DMCA | Add/correct tabs | Request tabs | Top 50 tabs