» » »

No Friends Bass tabs (ver.1)

Artists:  A B C D E F G H I J K L M N O P Q R S T U V W X Y Z # 

No Friends Bass tabs (ver.1)

Adolescents
Rating:
0/5 (0 votes)

Hard to play? Try these video lessons and learn fast.
                Song : No Friends
Band: The Adolescents



G-----------------------------------------------------------------|
D-----77---------77---------77---------77-------------------------|
A---00--55-77--00--55-77--00--55-77--00--55-77--------------------|
E-----------------------------------------------------------------|

repeat above as nessesary


verse

G-----------------------------------------------------------------|
D---7-8-7-8-7-8-7-8--9-10-9-10-9-10-9-10--------------------------|
A-----------------------------------------------------------------|
E-----------------------------------------------------------------|

G-----------------------------------------------------------------|
D-----77---------77-----------------------------------------------|
A---00--55-77--00--55-77------------------------------------------|
E-----------------------------------------------------------------|

G-----------------------------------------------------------------|
D---7-8-7-8-7-8-7-8--9-10-9-10-9-10-9-10--------------------------|
A-----------------------------------------------------------------|
E-----------------------------------------------------------------|

G-----------------------------------------------------------------|
D-----77---------77-----------------------------------------------|
A---00--55-77--00--55-77------------------------------------------|
E-----------------------------------------------------------------|

G-----------------------------------------------------------------|
D----5-5--22-33--2-2--3-2-----------------------------------------|
A------------------------3-2--------------------------------------|
E-----------------------------------------------------------------|

G-----------------------------------------------------------------|
D-----77---------77-----------------------------------------------|
A---00--55-77--00--55-77------------------------------------------|
E-----------------------------------------------------------------|

G-----------------------------------------------------------------|
D----5-5--22-33--3-3--2----2~~~~----------------------------------|
A----------------------320----------------------------------------|
E-----------------------------------------------------------------|



chorus

G-----------------------------------------------------------------|
D-----77---------77---------77---------77-------------------------|
A---00--55-77--00--55-77--00--55-77--00--55-77--------------------|
E-----------------------------------------------------------------|

repeat above as nessesary


verse

G-----------------------------------------------------------------|
D---7-8-7-8-7-8-7-8--9-10-9-10-9-10-9-10--------------------------|
A-----------------------------------------------------------------|
E-----------------------------------------------------------------|

G-----------------------------------------------------------------|
D-----77---------77-----------------------------------------------|
A---00--55-77--00--55-77------------------------------------------|
E-----------------------------------------------------------------|

G-----------------------------------------------------------------|
D---7-8-7-8-7-8-7-8--9-10-9-10-9-10-9-10--------------------------|
A-----------------------------------------------------------------|
E-----------------------------------------------------------------|

G-----------------------------------------------------------------|
D-----77---------77-----------------------------------------------|
A---00--55-77--00--55-77------------------------------------------|
E-----------------------------------------------------------------|

G-----------------------------------------------------------------|
D----5-5--22-33--2-2--3-2-----------------------------------------|
A------------------------3-2--------------------------------------|
E-----------------------------------------------------------------|

G-----------------------------------------------------------------|
D-----77---------77-----------------------------------------------|
A---00--55-77--00--55-77------------------------------------------|
E-----------------------------------------------------------------|

G-----------------------------------------------------------------|
D----5-5--22-33--3-3--2----2~~~~----------------------------------|
A----------------------320----------------------------------------|
E-----------------------------------------------------------------|


chorus

G-----------------------------------------------------------------|
D-----77---------77---------77---------77-------------------------|
A---00--55-77--00--55-77--00--55-77--00--55-77--------------------|
E-----------------------------------------------------------------|

repeat above as nessesary



verse 2 / guitar solo(s)

G-----------------------------------------------------------------|
D-------------------9-9-------------------------------------------|
A---3--3-3-3-33--7-7---77-----------------------------------------|
E-----------------------------------------------------------------|

G-----------------------------------------------------------------|
D-----77---------77-----------------------------------------------|
A---00--55-77--00--55-77------------------------------------------|
E-----------------------------------------------------------------|

G-----------------------------------------------------------------|
D------5--3--22---------------------------------------------------|
A---3------------55-7-5-5-77--------------------------------------|
E-----------------------------------------------------------------|

G-----------------------------------------------------------------|
D-----77---------77-----------------------------------------------|
A---00--55-77--00--55-77------------------------------------------|
E-----------------------------------------------------------------|

G-----------------------------------------------------------------|
D-------------------9-9-------------------------------------------|
A---3--3-3-3-33--7-7---77-----------------------------------------|
E-----------------------------------------------------------------|


G-----------------------------------------------------------------|
D-----77---------77-----------------------------------------------|
A---00--55-77--00--55-77------------------------------------------|
E-----------------------------------------------------------------|


G-----------------------------------------------------------------|
D------5--3--22---------------------------------------------------|
A---3------------55-7-5-5-77--------------------------------------|
E-----------------------------------------------------------------|


chorus

G-----------------------------------------------------------------|
D-----77---------77---------77---------77-------------------------|
A---00--55-77--00--55-77--00--55-77--00--55-77--------------------|
E-----------------------------------------------------------------|

repeat above as nessesary




verse

G-----------------------------------------------------------------|
D---7-8-7-8-7-8-7-8--9-10-9-10-9-10-9-10--------------------------|
A-----------------------------------------------------------------|
E-----------------------------------------------------------------|

G-----------------------------------------------------------------|
D-----77---------77-----------------------------------------------|
A---00--55-77--00--55-77------------------------------------------|
E-----------------------------------------------------------------|

G-----------------------------------------------------------------|
D---7-8-7-8-7-8-7-8--9-10-9-10-9-10-9-10--------------------------|
A-----------------------------------------------------------------|
E-----------------------------------------------------------------|

G-----------------------------------------------------------------|
D-----77---------77-----------------------------------------------|
A---00--55-77--00--55-77------------------------------------------|
E-----------------------------------------------------------------|

G-----------------------------------------------------------------|
D----5-5--22-33--2-2--3-2-----------------------------------------|
A------------------------3-2--------------------------------------|
E-----------------------------------------------------------------|

G-----------------------------------------------------------------|
D-----77---------77-----------------------------------------------|
A---00--55-77--00--55-77------------------------------------------|
E-----------------------------------------------------------------|

G-----------------------------------------------------------------|
D----5-5--22-33--3-3--2----2~~~~----------------------------------|
A----------------------320----------------------------------------|
E-----------------------------------------------------------------|

G-----------------------------------------------------------------|
D-----------------------------------------------------------------|
A-----------------------------------------------------------------|
E---0~~~~~~~~~----------------------------------------------------|



this should give you an idea of how it should sound like.
listen to the song and you should get it down.
            
Hard to play? Try these video lessons and learn fast. | Correct




comments powered by Disqus
↑ Back to top | Tablatures and chords are parodies/interpretations of the original songs. You may use it for private study, scholarship, research or language learning purposes only