» » »

Adolescents, L.A. Girl Bass tabs (ver.1)

Artists:  A B C D E F G H I J K L M N O P Q R S T U V W X Y Z # 

L.A. Girl Bass tabs (ver.1)

Adolescents Tabs
Rating:
0/5 (0 votes)
L.A. Girl lessons Tabs too difficult? Try these video lessons and learn fast
                Song : LA Girl
Band: The Adolescents


intro

G----------------------------------------------------------------------|
D----------------------------------------------------------------------|
A----------------------------------------------------------------------|
E---2222-2222-2222-2222------------------------------------------------|

verse

G----------------------------------------------------------------------|
D----------------------------------------------------------------------|
A--------0-00--3-33--2-22----------------------------------------------|
E---2-22---------------------2-22--3-33--0000-0000---------------------|

repeat above as nessesary

chorus

G----------------------------------------------------------------------|
D----------------------------------------------------------------------|
A---------5--3-------5--3------5--3------5--3-------5--3-------5--3----|
E---0-22-------3-55------0-22-----3-55-------0-22------3-55------------|

G----------------------------------------------------------------------|
D----------------------------------------------------------------------|
A----------------------------------------------------------------------|
E---0-22222222-3333-3--------------------------------------------------|

repeat above as nessesary


listen to the song and you should get it down the rythym
enjoy
            

comments powered by Disqus
↑ Back to top | Adolescents Bass for L.A. Girl. Lyrics for acoustic guitar and electric guitar. Tablatures and chords are parodies/interpretations of the original songs. You may use it for private study, scholarship, research or language learning purposes only