» » »

Adolescents, Creatures Tabs (ver.1)

Artists:  A B C D E F G H I J K L M N O P Q R S T U V W X Y Z # 

Creatures Tabs (ver.1)

Adolescents Tabs
 Rating:
3.6/5 (5 votes)
Creatures lessons Tabs too difficult? Try these video lessons and learn fast
                -------------------------------------------------------------------------------
                             CREATURES - The Adolescents
-------------------------------------------------------------------------------

Tuning: EADGBe

Verse 1
e|----------------------------------|
B|----------------------------------|
G|----------------------------------|
D|--5-5-5-5-5-5-5-5-5-5-5-5--7--10--|
A|--5-5-5-5-5-5-5-5-5-5-5-5--7--10--|
E|--3-3-3-3-3-3-3-3-3-3-3-3--5---8--|x4
   [------palm mute--------]

Chorus
e|----------|-------------|----------|
B|----------|-------------|----------|
G|--7-7-7-7-|-10-10-10-10-|----------|
D|--7-7-7-7-|-10-10-10-10-|--7-7-7-7-|
A|--5-5-5-5-|--8--8--8--8-|--7-7-7-7-|
E|----------|-------------|--5-5-5-5-|
          x4            x4         x4

Verse 2
e|----------------------------------|
B|----------------------------------|
G|----------------------------------|
D|--5-5-5-5-5-5-5-5-5-5-5-5--7--10--|
A|--5-5-5-5-5-5-5-5-5-5-5-5--7--10--|
E|--3-3-3-3-3-3-3-3-3-3-3-3--5---8--|x4
   [------palm mute--------]

Chorus 2
e|----------|-------------|----------|
B|----------|-------------|----------|
G|--7-7-7-7-|-10-10-10-10-|----------|
D|--7-7-7-7-|-10-10-10-10-|--7-7-7-7-|
A|--5-5-5-5-|--8--8--8--8-|--7-7-7-7-|
E|----------|-------------|--5-5-5-5-|
          x4            x4         x4

Post-Chorus
e|------------------------------------------------|
B|------------------------------------------------|
G|------------------------------------------------|
D|---12-12-12-12-12-12-12-12-12-12-12-12--14--17--|
A|---12-12-12-12-12-12-12-12-12-12-12-12--14--17--|
E|---10-10-10-10-10-10-10-10-10-10-10-10--12--15--|x4

Verse 3
e|----------------------------------|
B|----------------------------------|
G|----------------------------------|
D|--5-5-5-5-5-5-5-5-5-5-5-5--7--10--|
A|--5-5-5-5-5-5-5-5-5-5-5-5--7--10--|
E|--3-3-3-3-3-3-3-3-3-3-3-3--5---8--|x4
   [------palm mute--------]

Chorus 3
e|----------|-------------|----------|----------|----------|
B|----------|-------------|----------|----------|----------|
G|--7-7-7-7-|-10-10-10-10-|----------|----------|--5-5-5-5-|
D|--7-7-7-7-|-10-10-10-10-|--7-7-7-7-|--5-5-5-5-|--5-5-5-5-|
A|--5-5-5-5-|--8--8--8--8-|--7-7-7-7-|--5-5-5-5-|--3-3-3-3-|
E|----------|-------------|--5-5-5-5-|--3-3-3-3-|----------|
          x4            x4         x4         x2         x2

e|----------|-------------|----------|----------|----------|
B|----------|-------------|----------|----------|----------|
G|--7-7-7-7-|-10-10-10-10-|----------|----------|--5-5-5-5-|
D|--7-7-7-7-|-10-10-10-10-|--7-7-7-7-|--5-5-5-5-|--5-5-5-5-|
A|--5-5-5-5-|--8--8--8--8-|--7-7-7-7-|--5-5-5-5-|--3-3-3-3-|
E|----------|-------------|--5-5-5-5-|--3-3-3-3-|----------|
          x4            x4         x4         x2         x2


Solo-ish Riff (play over Chorus 3)
e|----------|---------|---------|---------|----------|
B|----------|---------|---------|---------|----------|
G|--7-7-7-7-|-5-5-5-5-|-9-9-9-9-|-7-7-7-7-|-5-5-5-5--|
D|--x-x-x-x-|-x-x-x-x-|-x-x-x-x-|-x-x-x-x-|-x-x-x-x--|
A|--5-5-5-5-|-3-3-3-3-|-7-7-7-7-|-5-5-5-5-|-3-3-3-3--|
E|----------|---------|---------|---------|----------|
          x4        x4        x4        x2         x2

e|-------------------------------------------|----------------|
B|-------------------------------------------|----------------|
G|--9-9-9--7-7-7--9-9-9--7-7-7--9-9-9--7-7-7-|--5-\-7--5-\-7--|
D|--x-x-x--x-x-x--x-x-x--x-x-x--x-x-x--x-x-x-|--x-\-x--x-\-x--|
A|--7-7-7--5-5-5--7-7-7--5-5-5--7-7-7--5-5-5-|--3-\-5--3-\-5--|
E|-------------------------------------------|----------------|

e|-------------------------------------------|--------------------------|
B|-------------------------------------------|--------------------------|
G|--9-9-9--7-7-7--9-9-9--7-7-7--9-9-9--7-7-7-|-12-12-12-12-12-12-12-12--|
D|--x-x-x--x-x-x--x-x-x--x-x-x--x-x-x--x-x-x-|--x--x--x--x--x--x--x--x--|
A|--7-7-7--5-5-5--7-7-7--5-5-5--7-7-7--5-5-5-|-10-10-10-10-10-10-10-10--|
E|-------------------------------------------|--------------------------|

Outro Chorus
e|----------|-------------|----------|----------|----------|
B|----------|-------------|----------|----------|----------|
G|--7-7-7-7-|-10-10-10-10-|----------|----------|--5-5-5-5-|
D|--7-7-7-7-|-10-10-10-10-|--7-7-7-7-|--5-5-5-5-|--5-5-5-5-|
A|--5-5-5-5-|--8--8--8--8-|--7-7-7-7-|--5-5-5-5-|--3-3-3-3-|
E|----------|-------------|--5-5-5-5-|--3-3-3-3-|----------|
          x4            x4         x4         x2         x2

e|----------|-------------|----------|----------|
B|----------|-------------|----------|----------|
G|--7-7-7-7-|-10-10-10-10-|----------|----------|
D|--7-7-7-7-|-10-10-10-10-|--7-7-7-7-|--5-5-5-5-|
A|--5-5-5-5-|--8--8--8--8-|--7-7-7-7-|--5-5-5-5-|
E|----------|-------------|--5-5-5-5-|--3-3-3-3-|
          x4            x4         x4      

e|---------------------|
B|---------------------|
G|---------------------|
D|--4\5-5--4\5-5--4\5--|
A|--4\5-5--4\5-5--4\5--|
E|--2\3-3--2\3-3--2\3--|



Done. Not 100% correct, but pretty damn close.
            
Submit corrections

comments powered by Disqus
↑ Back to top | Adolescents Tabs for Creatures. Lyrics for acoustic guitar and electric guitar. Tablatures and chords are parodies/interpretations of the original songs. You may use it for private study, scholarship, research or language learning purposes only