» » »

Smart Alex Bass tabs (ver.1)

Artists:  A B C D E F G H I J K L M N O P Q R S T U V W X Y Z # 

Smart Alex Bass tabs (ver.1)

Adicts
Rating:
0/5 (0 votes)

Hard to play? Try these video lessons and learn fast.
                [The Adicts]
[Song: Smart Alex]



[Intro]

G|-------------------------------------------|
D|-5-5-5-5-5-5-5-5-5-5-5-5-5-5-5-5-5-5-5-----|
A|-------------------------------------------|
E|-------------------------------------------|



[Verse]

I'm Jack, Jack the lad;

G|-------------------------------------------|
D|-------------------------------------------|
A|-------------------------------------------|
E|-3-3-3-3-3-3-3-3-3-3-3-3-3-3-3-3-3-3-3-----|

I'm a nasty habit!

G|---------------------------------------------------|
D|---------------------------------------------------|
A|---0---2---4---5-----------------------------------|
E|---------------------3---3-3-3-3-3-3-3-3-3-3-3-3---|

I'm the joker in the pack;

G|------------------------------------------|
D|------------------------------------------|
A|------------------------------------------|
E|-3-3-3-3-3-3-3-3-3-3-3-3-3-3-3-3-3-3-3----|

I'm the prize exhibit!

G|---------------------------------------------------|
D|---------------------------------------------------|
A|---0---2---4---5-----------------------------------|
E|---------------------3---3-3-3-3-3-3-3-3-3-3-3-3---|



[Chorus]

Alex they call him Alex;
Smart boy Alex;
They call him Alex.

G|-----------------------------------------------|
D|-5-5-5-5-5-5-5-5-5-5-5-5-5-5-5-5-5-5-5---------|
A|-----------------------------------------------|
E|-----------------------------------------------|



[Post - Chorus (Pre - 2th Verse)]

G|--------------------------------------------------|
D|--------------------------------------------------|
A|---0---2---4---5----------------------------------|
E|---------------------3---3-3-3-3-3-3-3-3-3-3-3-3--|



[2th Verse]

I'm a dreamer, I'm a dream.

G|------------------------------------------|
D|------------------------------------------|
A|------------------------------------------|
E|-3-3-3-3-3-3-3-3-3-3-3-3-3-3-3-3-3-3-3----|

I'm a fantasy addict.

G|---------------------------------------------------|
D|---------------------------------------------------|
A|---0---2---4---5-----------------------------------|
E|---------------------3---3-3-3-3-3-3-3-3-3-3-3-3---|

I'm a ghost in a ghost town.

G|-----------------------------------------|
D|-----------------------------------------|
A|-----------------------------------------|
E|-3-3-3-3-3-3-3-3-3-3-3-3-3-3-3-3-3-3-3---|

I'm a derelict!

G|---------------------------------------------------|
D|---------------------------------------------------|
A|---0---2---4---5-----------------------------------|
E|---------------------3---3-3-3-3-3-3-3-3-3-3-3-3---|



[2th Chorus]

Alex, they call him Alex.
Smart boy Alex.
They call him Alex.

G|------------------------------------------|
D|----5---5---5---5---5---5---5---5---5-----|
A|------------------------------------------|
E|--3---3---3---3---3---3---3---3---3---3---|

They call him Alex;
Smart boy Alex.
They call him Alex;
Smart boy Alex.

G|------------------------------------------|
D|----5---5---5---5---5---5---5---5---5-----|
A|------------------------------------------|
E|--3---3---3---3---3---3---3---3---3---3---|



[Post - Chorus (4x) ]

G|------------------------------------------------|
D|------------------------------------------------|
A|---0---2---4---5--------------------------------|
E|---------------------3---3-3-3-3-3-3-3-3-3-3-3-3|



[Bridge (2x)]

G|-----------------------------------------------|
D|-5-5-5-5-5-5-5-5-5-5-5-5-5-5-5-5-5-5-5-5-5-5-5-|
A|-----------------------------------------------|
E|-----------------------------------------------|

G|-----------------------------------------------|
D|-5-5-5-5-5-5-5-5-5-5-5-5-5-5-5-5-5-5-5-5---3---|
A|-----------------------------------------------|
E|-----------------------------------------------|



[3th Verse]

I'm Jack, the giant killer;

G|-----------------------------------------|
D|-----------------------------------------|
A|-----------------------------------------|
E|-3-3-3-3-3-3-3-3-3-3-3-3-3-3-3-3-3-3-3---|

I'm your shocking filler.

G|---------------------------------------------------|
D|---------------------------------------------------|
A|---0---2---4---5-----------------------------------|
E|---------------------3---3-3-3-3-3-3-3-3-3-3-3-3---|

I'm black I'm white;

G|------------------------------------------|
D|------------------------------------------|
A|------------------------------------------|
E|-3-3-3-3-3-3-3-3-3-3-3-3-3-3-3-3-3-3-3----|

I'm day and night!

G|--------------------------------------------------|
D|--------------------------------------------------|
A|---0---2---4---5----------------------------------|
E|---------------------3---3-3-3-3-3-3-3-3-3-3-3-3--|



[3th Chorus]

Alex they call him Alex;
Smart boy Alex;
They call him Alex.

G|-----------------------------------------|
D|-5-5-5-5-5-5-5-5-5-5-5-5-5-5-5-5-5-5-5---|
A|-----------------------------------------|
E|-----------------------------------------|

They call him Alex;
Smart boy Alex.
They call him Alex;
Smart boy Alex.

G|-----------------------------------------|
D|-5-5-5-5-5-5-5-5-5-5-5-5-5-5-5-5-5-5-5---|
A|-----------------------------------------|
E|-----------------------------------------|


[Post - 3th Chorus( 4x)]

G|---------------------------------------------------|
D|---------------------------------------------------|
A|---0---2---4---5-----------------------------------|
E|---------------------3---3-3-3-3-3-3-3-3-3-3-3-3---|



Ending (Monkey's laugh)

G|--------------------------------------------|
D|--------------------------------------------|
A|--------------------------------------------|
E|-3/2-2-2-2---2/3-3--------------------------|
            
Hard to play? Try these video lessons and learn fast. | Correct




comments powered by Disqus
↑ Back to top | Tablatures and chords are parodies/interpretations of the original songs. You may use it for private study, scholarship, research or language learning purposes only