» » »

Shangri-la Bass tabs (ver.1)

Artists:  A B C D E F G H I J K L M N O P Q R S T U V W X Y Z # 

Shangri-la Bass tabs (ver.1)

Adicts
Rating:
0/5 (0 votes)

Hard to play? Try these video lessons and learn fast.
                THE ADICTS - SHANGRI LA
27: 1993
TUNING: STANDARD E.A.D.G


INTRO: X2

G:|----------------------------------|
D:|----------------------------------|
A:|8-88888888888888------------------|
E:|-----------------6-66666666666666-|


VERSE: X2

G:|-----------------------------------|
D:|-----------------------------------|
A:|-----------------------------------|
E:|5------------0--2-3----------------|


PRE CHORUS: X1
                                      
G:|-----------------------------------------------------|
D:|-----------------------------------------------------|
A:|1-11111111111111-3-33333333333333-1-11111111111111-3-|
E:|-----------------------------------------------------|

CHORUS: X2

G:|----------------------------------|
D:|----------------------------------|
A:|8-88888888888888------------------|
E:|-----------------6-66666666666666-|


VERSE: X2

G:|-----------------------------------|
D:|-----------------------------------|
A:|-----------------------------------|
E:|5------------0--2-3----------------|

PRE CHORUS: X1
                                      
G:|-----------------------------------------------------|
D:|-----------------------------------------------------|
A:|1-11111111111111-3-33333333333333-1-11111111111111-3-|
E:|-----------------------------------------------------|


CHORUS: X4

G:|----------------------------------|
D:|----------------------------------|
A:|8-88888888888888------------------|
E:|-----------------6-66666666666666-|

OUTRO: X2

G:|---------------------------------------------------------------------|
D:|---------------------------------------------------------------------|
A:|5555555555555555-3333333333333333-1111111111111111-00000000-33333333-|
E:|---------------------------------------------------------------------|

GAP: X2

G:|-----------------------------------|
D:|-----------------------------------|
A:|-----------------------------------|
E:|5-55555555550-0-2-3-33333333333333-|

VERSE: X2

G:|-----------------------------------|
D:|-----------------------------------|
A:|-----------------------------------|
E:|5------------0--2-3----------------|

PRE CHORUS: X1

G:|-----------------------------------------------------|
D:|-----------------------------------------------------|
A:|1-11111111111111-3-33333333333333-1-11111111111111-3-|
E:|-----------------------------------------------------|

CHORUS: X4
                                      
G:|----------------------------------|
D:|----------------------------------|
A:|8-88888888888888------------------|
E:|-----------------6-66666666666666-|

ATER 4X ON THE FIRST RIFF DO THIS
G:|---------------------------------------------------------------------|
D:|---------------------------------------------------------------------|
A:|-----------------7888788878887888-------------------7888888878887888-|
E:|8-88888888888888------------------8-888888888888888------------------|

THEN NORMAL CHORUS RIFF X2

G:|----------------------------------|
D:|----------------------------------|
A:|8-88888888888888------------------|
E:|-----------------6-66666666666666-|

THEN BACK TO SECOND PART OF CHORUS RIFF X2

G:|----------------------------------|
D:|----------------------------------|
A:|-----------------7888888878887888-|
E:|8-88888888888888------------------|

THEN NORMAL CHORUS RIFF X2

G:|----------------------------------|
D:|----------------------------------|
A:|8-88888888888888------------------|
E:|-----------------6-66666666666666-|

BY THE TIME YOU'VE DONE THAT TWICE THE SONG HAS FADED OUT COMPLETLY.

THATS IT, A LONG SONG BUT A f**kIN COOL ONE TOO, ITS ALL IN ITS CORRECT STRUCTURE SO FOLLOW
 THE TAP WITH THE SONG AND YOU'LL HAVE A PERFECT MATCH.
            
Hard to play? Try these video lessons and learn fast. | Correct




comments powered by Disqus
↑ Back to top | Tablatures and chords are parodies/interpretations of the original songs. You may use it for private study, scholarship, research or language learning purposes only