>
 >
Johnny Was A Soldier

Johnny Was A Soldier Guitar Tabs

Adicts - Johnny Was A Soldier chords, tabs, tablatures, lyrics

Guitar lessons | Add/correct | Request | Top 50 tabs Artists:  A B C D E F G H I J K L M N O P Q R S T U V W X Y Z 0-9

Johnny Was A Soldier Guitar Tabs – Adicts

CD, Sheet music, Poster

Do you like Johnny Was A Soldier? Share with your friends now
Bass TabsTabs
                         JOHNNY WAS A SOLDIER
                       ''''''''''''''''''''''''
                               ADICTS

" " palm mute

e|---------------------|
b|----------2---2------|   intro
g|---2----2-------2----|
d|-2----2-----2-----2--|
a|---------------------|
E|---------------------|

|-------------------------------------------------------------------| bridge
|-------------------------------------------------------------------|
|----------------------------5-555555----------------------------5--|
|-7-777777-3-333333-5-555555-3-333333-7-777777-3-333333-5-555555-3--|
|-5-555555-1-111111-3-333333----------5-555555-1-111111-3-333333----|
|-------------------------------------------------------------------|

|---------------|
|---------------|
|-2------2------| end bridge
|---3------3----|
|-----3------3--|
|---------------|

|---------|
|---------|       lyrics: johnny joined the army, the cause he didnt know
|-"5"-----| verse    he spent three weeks in the midddle east, ya know
|-"3"-"5"-          it doesnt show.
|-----"3"-|
|---------|
 |x24||x8|

|-------------------------------------------------------|
|-------------------------------------------------------|
|-7-777777-3-333333-------------------7-777777-3-333333-| chorus a
|-5-555555-1-111111-3-XXXXXX-3-XXXXXX-5-555555-1-111111-|
|-------------------1-XXXXXX-1-XXXXXX-------------------|
|-------------------------------------------------------|

|------------------------------------|          lyrics: rush rush rush rush, rush rush
|------------------------------------|                rush rush, johnny was a soldier
|------------------------------------| end chorus a   he cant dance anymore. rush rush
|-3-XXXXXX-3-XXXXXX------------------|                rush rush, rush rush rush rush
|-1-XXXXXX-1-XXXXXX------------------|                johnny was a soldier he cant dance
|------------------------------------|                anymore.

|-------------------------------------------------------------------| bridge
|-------------------------------------------------------------------|
|----------------------------5-555555----------------------------5--|
|-7-777777-3-333333-5-555555-3-333333-7-777777-3-333333-5-555555-3--|
|-5-555555-1-111111-3-333333----------5-555555-1-111111-3-333333----|
|-------------------------------------------------------------------|

|---------------|
|---------------|
|-2------2------| end bridge
|---3------3----|
|-----3------3--|
|---------------|

|---------|
|---------|       lyrics: when he came out, he tried to form a band
|-"5"-----| verse       but hes only got one leg, and he can hardly
|-"3"-"5"-             stand.
|-----"3"-|
|---------|
 |x24||x8|

|-------------------------------------------------------|
|-------------------------------------------------------|
|-7-777777-3-333333-------------------7-777777-3-333333-| chorus a
|-5-555555-1-111111-3-XXXXXX-3-XXXXXX-5-555555-1-111111-|
|-------------------1-XXXXXX-1-XXXXXX-------------------|
|-------------------------------------------------------|

|------------------------------------|          lyrics: rush rush rush rush, rush rush
|------------------------------------|                rush rush, johnny was a soldier
|------------------------------------| end chorus a   he cant dance anymore. rush rush
|-3----------------------------------|                rush rush, rush rush rush rush
|-1----------------------------------|                johnny was a soldier he cant dance
|------------------------------------|                anymore.

|-------------------------------------------------------|
|-------------------------------------------------------|
|-7-777777-5-555555-7-777777-5-555555-7-777777-5-555555-| chorus b x2
|-5-555555-3-333333-5-555555-3-333333-5-555555-3-333333-|
|-------------------------------------------------------|
|-------------------------------------------------------|

|-------------------|     lyrics: whoa, whoa, whoa, johnny was a soldier
|-------------------|            whoa, whoa, whoa, johnny was a soldier.
|-------------------|
|-5-555555-5-555555-|
|-3-333333-3-333333-|
|-------------------|

|-------------------------------------------------------------------| bridge
|-------------------------------------------------------------------|
|----------------------------5-555555----------------------------5--|
|-7-777777-3-333333-5-555555-3-333333-7-777777-3-333333-5-555555-3--|
|-5-555555-1-111111-3-333333----------5-555555-1-111111-3-333333----|
|-------------------------------------------------------------------|

|---------------|
|---------------|
|-2------2------| end bridge
|---3------3----|
|-----3------3--|
|---------------|

|---------|
|---------|        lyrics: now he drinks alone, he gets sentimental
|-"5"-----| verse         when he watches girls dance, and hes thrown
|-"3"-"5"-               away his medals.
|-----"3"-|
|---------|
 |x24||x8|

|-------------------------------------------------------|
|-------------------------------------------------------|
|-7-777777-3-333333-------------------7-777777-3-333333-| chorus a
|-5-555555-1-111111-3-XXXXXX-3-XXXXXX-5-555555-1-111111-|
|-------------------1-XXXXXX-1-XXXXXX-------------------|
|-------------------------------------------------------|

|------------------------------------|          lyrics: rush rush rush rush, rush rush
|------------------------------------|                rush rush, johnny was a soldier
|------------------------------------| end chorus a   he cant dance anymore. rush rush
|-3-XXXXXX-3-XXXXXX------------------|                rush rush, rush rush rush rush
|-1-XXXXXX-1-XXXXXX------------------|                johnny was a soldier he cant dance
|------------------------------------|                anymore.

|-------------------------------------------------------|
|-------------------------------------------------------|
|-7-777777-3-333333-------------------7-777777-3-333333-| chorus a
|-5-555555-1-111111-3-XXXXXX-3-XXXXXX-5-555555-1-111111-|
|-------------------1-XXXXXX-1-XXXXXX-------------------|
|-------------------------------------------------------|

|------------------------------------|          lyrics: rush rush rush rush, rush rush
|------------------------------------|                rush rush, johnny was a soldier
|------------------------------------| end chorus a   he cant dance anymore. rush rush
|-3----------------------------------|                rush rush, rush rush rush rush
|-1----------------------------------|                johnny was a soldier he cant dance
|------------------------------------|                anymore.

|-------------------------------------------------------|
|-------------------------------------------------------|
|-7-777777-5-555555-7-777777-5-555555-7-777777-5-555555-| chorus b x2
|-5-555555-3-333333-5-555555-3-333333-5-555555-3-333333-|
|-------------------------------------------------------|
|-------------------------------------------------------|

|-------------------|     lyrics: whoa, whoa, whoa, johnny was a soldier
|-------------------|            whoa, whoa, whoa, johnny was a soldier.
|-------------------|
|-5-555555-5-555555-|
|-3-333333-3-333333-|
|-------------------|

|-------------------------------------------| short chorus  lyrics: johnny was johnny
|-------------------------------------------| was. johnny was johnny was.
|-7---5---7---5---7---5---4/5-4/5-4/555555--| johnny was johnny was,
|-5---3---5---3---5---3---2/3-2/3-2/333333--| johnny was a soldier....
|-------------------------------------------|
|-------------------------------------------|

|-------------------------------------------------------|
|-------------------------------------------------------|
|-7-777777-5-555555-7-777777-5-555555-7-777777-5-555555-| chorus b x2
|-5-555555-3-333333-5-555555-3-333333-5-555555-3-333333-|
|-------------------------------------------------------|
|-------------------------------------------------------|

|-------------------|     lyrics: whoa, whoa, whoa, johnny was a soldier
|-------------------|            whoa, whoa, whoa, johnny was a soldier.
|-------------------|
|-5-555555-5-555555-|
|-3-333333-3-333333-|
|-------------------|  repeat and fade


SONG ORDER: tabbed in order.





Comments


Popular Adicts tabs & chords
Calling Calling Bass Tabs
Youll Never Walk Alone Chords
Youre All Fools Chords
Eyes In The Back Of Your Head 1 Tabs
G.I.R.L Tabs
Hurt Intro Tabs
Let's Go Tabs
Straight Jacket Tabs
Woke Up This Morning Tabs
Viva La Revolution Ukulele


Song lyrics



↑ Back to top | Tablatures and chords are parodies/interpretations of the original songs. You may use it for private study, scholarship, research or language learning purposes only
© 2014 AZChords.com Contact us | Privacy policy | DMCA | Add/correct tabs | Request tabs | Top 50 tabs