» » »

Adicts, G.I.R.L Tabs (ver.1)

Artists:  A B C D E F G H I J K L M N O P Q R S T U V W X Y Z # 

G.I.R.L Tabs (ver.1)

Adicts Tabs
 Rating:
4/5 (4 votes)
G.I.R.L lessons Tabs too difficult? Try these video lessons and learn fast
1
                -----------------------------------------------------------------------------
                         G.I.R.L. - The Adicts
-----------------------------------------------------------------------------
Tuning: Standard

Intro/Chorus (Guitar 1)
e|----------------------------------|
B|----------------------------------|
G|----------------------------------|
D|-7-7777776-6666664-4444442-222222-|
A|-7-7777776-6666664-4444442-222222-|
E|-5-5555554-4444442-2222220-000000-|

Intro/Chorus (Guitar 2)
e|----------------------------------|
B|----------------------------------|
G|-------------------------9-999999-|
D|-7~------6~------4~------9-999999-|
A|-7~------6~------4~------7-777777-|
E|-5~------4~------2~---------------|

Verse (Both Guitars)
e|----------|
B|----------|
G|----------|
D|-7-----75-|
A|-7-----75-|
E|-5-----53-|

Pre-verse (Guitar 1)
E|-5-55-53-|

"Juliet" Part (Both Guitars)
e|-------------------------------------|
B|-------------------------------------|
G|-------------------9-99-999-9-99-999-|
D|-9-99-999-9-99-999-9-99-999-9-99-999-|
A|-9-99-999-9-99-999-7-77-777-7-77-777-|
E|-7-77-777-7-77-777-------------------|

Other Pre-verse (Guitar 1)
E|-6-66-64-|

Other Verse (Both Guitars)
e|----------|
B|----------|
G|----------|
D|-8-----86-|
A|-8-----86-|
E|-6-----64-|

Other Chorus (Guitar 1)
e|----------------------------------|
B|----------------------------------|
G|----------------------------------|
D|-8-8888887-7777775-5555553-333333-|
A|-8-8888887-7777775-5555553-333333-|
E|-6-6666665-5555553-3333331-111111-|

Other Chorus (Guitar 2)
e|----------------------------------------|
B|----------------------------------------|
G|------------------------10-101010101010-|
D|-8~------7~------5~-----10-101010101010-|
A|-8~------7~------5~------8--8-8-8-8-8-8-|
E|-6~------5~------3~---------------------|

That's it. I'm not doing the part where it switches to "Uptown Girl"
            
Submit corrections

comments powered by Disqus
↑ Back to top | Adicts Tabs for G.I.R.L. Lyrics for acoustic guitar and electric guitar. 1 Tablatures and chords are parodies/interpretations of the original songs. You may use it for private study, scholarship, research or language learning purposes only