» » »

Adicts, Calling Calling Tabs (ver.1)

Artists:  A B C D E F G H I J K L M N O P Q R S T U V W X Y Z # 

Calling Calling Tabs (ver.1)

Adicts Tabs
Rating:
5/5 (1 vote)
Calling Calling lessons Tabs too difficult? Try these video lessons and learn fast
                Intro
-----------3----|
-----------3----|
-----------0----|
-----------0----|
-3-2-0-2p0-x----|
-----------3----|  X2

Verse
-3-----3--2-----2-----------------|
-3-x-x-3--3-x-x-3--5-x-x-5--5/7-7-|
-0-x-x-0--4-x-x-4--5-x-x-5--5/7-7-|
---x-x------x-x----5-x-x-5--5/7-7-|
----------------------------------|
----------------------------------| X4

Chorus
-----8-----8-------------------|
-------8-----------12-------12-|
-/9------9-----/12----12-------|
-/10-----------/12-------12----|
-------------------------------|
-------------------------------|  X3  then intro X1

Solo #1
-7--------------------7------------|
-8-/88-10b-10-8-3-5---8-/88--3/5---|
----00----------0-0------00--0--X6-|
-----------------------------------|
-----------------------------------|
-----------------------------------|

Solo #2
----------------------------------------------12---|
-13/15---13-11--10/11X6-----13/15---13-11--10---X6-|
---------------------------------------------------|
---------------------------------------------------|
---------------------------------------------------|
---------------------------------------------------|
            

comments powered by Disqus
↑ Back to top | Adicts Tabs for Calling Calling. Lyrics for acoustic guitar and electric guitar. Tablatures and chords are parodies/interpretations of the original songs. You may use it for private study, scholarship, research or language learning purposes only