>
 >
Let Go 1

Let Go 1 Guitar Tabs

Adema - Let Go 1 chords, tabs, tablatures, lyrics

Guitar lessons | Add/correct | Request | Top 50 tabs Artists:  A B C D E F G H I J K L M N O P Q R S T U V W X Y Z 0-9

Let Go 1 Guitar Tabs – Adema

CD, Sheet music, Poster

Do you like Let Go 1? Share with your friends now
Bass TabsTabsTabs v2
Adema - Let Go
  
Tuning - Standard 1/2 step down

Intro
Q=76
  
    Gtr I
    E E E S S S S E Q    E E E E E E T T S S S
||------3---3-----5----|-----5---8-6-5h6p5---5--||
||o-5-5---5---5S7---7--|-6-6---6-----------6---o||
||---------------------|------------------------||
||---------------------|------------------------||
||o--------------------|-----------------------o||
||---------------------|------------------------||


   Verse
    Gtr II
    E S S E  T T S E E S S S S   E E S S S S S S S S S S S S   4x
||-----------------------------|-------------------------------||
||o----------------------3-----|-------3----------------------o||
||--------0------------2---2---|-----2---2---------------------||
||----0h2----0h2p0---0-------0-|---0-------0-----3---2---0-----||
||o-3--------------------------|-------------0h1---1---1---1--o||
||-----------------2-----------|-1-----------------------------||


 Chorus
  B5     C#5             F#5      D5
  Gtrs I, II
  Q  E S e S E S S S S    Q   E S e S E S S S S
|----------------------|------------------------||
|-5--5---7-7-7-7-7-----|-10--10---3-3-3-3-3-----||
|-5--5-x-7-7-7-7-7-x-x-|-10--10---3-3-3-3-3-x-x-||
|-5--5-x-7-7-7-7-7-x-x-|-10--10-x-3-3-3-3-3-x-x-||
|-3--3-x-5-5-5-5-5-x-x-|--8---8-x-1-1-1-1-1-x-x-||
|----------------------|--------x---------------||


   Verse
    N.C.
    Gtr II
    E S S E  T T S  E E S S S S   E E S S S S  S S S S  S S  S S   4x
||------------------------------|----------------------------------||
||o-----------------------3-----|-------3-------------------------o||
||--------0-------------2---2---|-----2---2------------------------||
||----0h2----0h2p0----0-------0-|---0-------0------3----2----0-----||
||o-3---------------------------|--------------0h1---1----1----1--o||
||------------------2-----------|-1--------------------------------||
|
|   Gtr I
|   H               H             H            Q        E    E     4x
||------------------------------|----------------------------------||
||o-8--------------10-----------|-8-----------13-------11---10----o||
||------------------------------|----------------------------------||
||------------------------------|----------------------------------||
||o-----------------------------|---------------------------------o||
||------------------------------|----------------------------------||


   Chorus
    $
    B5         C#5         F#5          D5
    Gtr II
    Q  E S e S E S S S S    Q   E S e S E S S S S
||-----------------------|-------------------------||
||o-5--5---7-7-7-7-7-----|-10--10---3-3-3-3-3-----o||
||--5--5-x-7-7-7-7-7-x-x-|-10--10---3-3-3-3-3-x-x--||
||--5--5-x-7-7-7-7-7-x-x-|-10--10-x-3-3-3-3-3-x-x--||
||o-3--3-x-5-5-5-5-5-x-x-|--8---8-x-1-1-1-1-1-x-x-o||
||-----------------------|--------x----------------||


                                                 To Coda
    B5          C#5           F#5           D5
    Gtr II
    Q  E S e    S E S S S S    Q   E S e    S E S S S S
||--------------------------|-----------------------------||
||o-5--5---7----7-7-7-7-----|-10--10---3----3-3-3-3------o||
||--5--5-x-7----7-7-7-7-x-x-|-10--10---3----3-3-3-3-x-x---||
||--5--5-x-7----7-7-7-7-x-x-|-10--10-x-3----3-3-3-3-x-x---||
||o-3--3-x-5----5-5-5-5-x-x-|--8---8-x-1----1-1-1-1-x-x--o||
||--------------------------|--------x--------------------||
|
|   Gtr I
|   ~~~~~~~~~~~~~~~~~~~~~~~~~~~~~~~~~~~~~~~~
|   H         H                H          H
||--------------------------|-----------------------------||
||o-8--------10-------------|--8---------13--------------o||
||--------------------------|-----------------------------||
||--------------------------|-----------------------------||
||o-------------------------|----------------------------o||
||--------------------------|-----------------------------||


 Interlude
  B5     C#5              F#5      D5
  Gtr I
|----------------------|-------------------------|
|----------------------|-------------------------|
|----------------------|-------------------------|
|----------------------|-------------------------|
|----------------------|-------------------------|
|----------------------|-------------------------|
|
| Gtr II
| Q  E S e S E S S S S     Q   E S e S E S S S S
|----------------------|-------------------------|
|-5--5---7-7-7-7-7-----|--10--10---3-3-3-3-3-----|
|-5--5-x-7-7-7-7-7-x-x-|--10--10---3-3-3-3-3-x-x-|
|-5--5-x-7-7-7-7-7-x-x-|--10--10-x-3-3-3-3-3-x-x-|
|-3--3-x-5-5-5-5-5-x-x-|---8---8-x-1-1-1-1-1-x-x-|
|----------------------|---------x---------------|


  B5     C#5             F#5       D5
|----------------------|-----------------------------|
|----------------------|-----------------------------|
|----------------------|-----------------------------|
|----------------------|-----------------------------|
|----------------------|-----------------------------|
|----------------------|-----------------------------|
|
| Q  E S e S E S S S S    Q    E S e S E  S S S S
|----------------------|-----------------------------|
|-5--5---7-7-7-7-7-----|-10---10---3-3-3--3-3--------|
|-5--5-x-7-7-7-7-7-x-x-|-10---10---3-3-3--3-3-x-x----|
|-5--5-x-7-7-7-7-7-x-x-|-10---10-x-3-3-3--3-3-x-x----|
|-3--3-x-5-5-5-5-5-x-x-|--8----8-x-1-1-1--1-1-x-x----|
|----------------------|---------x-------------------|


  B5       C#5               F#5      D5
|----------------------|------------------------|
|----------------------|------------------------|
|----------------------|------------------------|
|----------------------|------------------------|
|----------------------|------------------------|
|----------------------|------------------------|
|
| Q  E S e S E S S S S    Q   E S e S E S S S S
|----------------------|------------------------|
|-5--5---7-7-7-7-7-----|-10--10---3-3-3-3-3-----|
|-5--5-x-7-7-7-7-7-x-x-|-10--10---3-3-3-3-3-x-x-|
|-5--5-x-7-7-7-7-7-x-x-|-10--10-x-3-3-3-3-3-x-x-|
|-3--3-x-5-5-5-5-5-x-x-|--8---8-x-1-1-1-1-1-x-x-|
|----------------------|--------x---------------|


  B5       C#5           F#5        D5
|----------------------|---------------------------|
|----------------------|---------------------------|
|----------------------|---------------------------|
|----------------------|---------------------------|
|----------------------|---------------------------|
|----------------------|---------------------------|
|
| Q  E S e S E S S S S    Q   E S e S E S S S S
|----------------------|---------------------------|
|-5--5---7-7-7-7-7-----|-10--10---3-3-3-3-3--------|
|-5--5-x-7-7-7-7-7-x-x-|-10--10---3-3-3-3-3-x-x----|
|-5--5-x-7-7-7-7-7-x-x-|-10--10-x-3-3-3-3-3-x-x----|
|-3--3-x-5-5-5-5-5-x-x-|--8---8-x-1-1-1-1-1-x-x----|
|----------------------|--------x------------------|


                                                D.S. al Coda
  N.C.
  E E   E S   S S S E Q         E E E   E   E   E   T T S S S
|-------3-----3-----5---------|-----5-------8---6---5h6p5---5--||
|-5-5-----5-----5S7---7-------|-6-6-----6-----------------6----||
|-----------------------------|--------------------------------||
|-----------------------------|--------------------------------||
|-----------------------------|--------------------------------||
|-----------------------------|--------------------------------||
|
| E S S E T T S E   E S S S S   E E S S S S S S S S S   S S S
|-----------------------------|--------------------------------||
|-----------------------3-----|-------3------------------------||
|-------0-------------2---2---|-----2---2----------------------||
|---0h2---0h2p0-----0-------0-|---0-------0-----3---2-----0----||
|-3---------------------------|-------------0h1---1-----1---1--||
|---------------2-------------|-1------------------------------||


   Outro
                          1.,2.,3.
    &
    B5           C#5       F#5            D5
    Gtrs I, II
    Q  E S e S E S S S S    Q   E S e S E S S S S  4x
||-----------------------|-------------------------||
||o-5--5---7-7-7-7-7-----|-10--10---3-3-3-3-3-----o||
||--5--5-x-7-7-7-7-7-x-x-|-10--10---3-3-3-3-3-x-x--||
||--5--5-x-7-7-7-7-7-x-x-|-10--10-x-3-3-3-3-3-x-x--||
||o-3--3-x-5-5-5-5-5-x-x-|--8---8-x-1-1-1-1-1-x-x-o||
||-----------------------|--------x----------------||


 4.            H.=H
  F#5  C       D5        B5
  Q  E S e S E S S S S    Q   E S e S E S S S S
|----------------------|-------------------------*|
|-5--5---7-7-7-7-7-----|-10--10---3-3-3-3-3------*|
|-5--5-x-7-7-7-7-7-x-x-|-10--10---3-3-3-3-3-x-x--*|
|-5--5-x-7-7-7-7-7-x-x-|-10--10-x-3-3-3-3-3-x-x--*|
|-3--3-x-5-5-5-5-5-x-x-|--8---8-x-1-1-1-1-1-x-x--*|
|----------------------|--------x----------------*|

--------------------------------------------------------------------------------

Tablature Legend
----------------
 h   - hammer-on
 p   - pull-off
 b   - bend
 pb  - pre-bend
 r   - bend release (if no number after the r, then release immediately)
 /\  - slide into or out of (from/to "nowhere")
 s   - legato slide
 S   - shift slide
 - natural harmonic
[n]  - artificial harmonic
n(n) - tapped harmonic
 ~   - vibrato
 tr  - trill
 T   - tap
 TP  - trem. picking
 PM  - palm muting
\n/  - tremolo bar dip; n = amount to dip
 \n  - tremolo bar down
 n/  - tremolo bar up
/n\  - tremolo bar inverted dip
 =   - hold bend; also acts as connecting device for hammers/pulls
 <> - volume swell (louder/softer)
 x   - on rhythm slash represents muted slash
 o   - on rhythm slash represents single note slash





Comments


Popular Adema tabs & chords
Betrayed Me Bass Tabs
Giving In Bass Tabs
Tornado Bass Tabs
Adema Tabs
Close Friends 1 Tabs
Close Friends 2 Tabs
Immortal 3 Tabs
Trust Intro Tabs
Until Now Tabs
Nutshell Ukulele


Song lyrics



↑ Back to top | Tablatures and chords are parodies/interpretations of the original songs. You may use it for private study, scholarship, research or language learning purposes only
© 2014 AZChords.com Contact us | Privacy policy | DMCA | Add/correct tabs | Request tabs | Top 50 tabs