>
 >
Betrayed Me 1

Betrayed Me 1 Guitar Tabs

Adema - Betrayed Me 1 chords, tabs, tablatures, lyrics

Guitar lessons | Add/correct | Request | Top 50 tabs Artists:  A B C D E F G H I J K L M N O P Q R S T U V W X Y Z 0-9

Betrayed Me 1 Guitar Tabs – Adema

CD, Sheet music, Poster

Do you like Betrayed Me 1? Share with your friends now
Bass TabsBass Tabs v2TabsTabs v2

      *Song:   Betrayed me
      *Artist: Adema
      *Album:
      *Tuning: Standard (EADGBe)


      *Note: Since theres only one tab actually out there i thought
	     i would post a straight through version with all the
	     little bridges that everyone misses.

	As always...
	     Happy playing :)

Intro & Verse [Slightly PM]
e|------------------------------------------------------|
B|------------------------------------------------------|
G|-----------------3--------------------3---1--3--3/5---|
D|--------3----------3-------3------------3-------------|
A|---1--4---4-------------------4-----------------------|
E|---------------4--------1----------2------------------| X3


PRE-CHORUS [up down strumming]
e|-------------------------------------------------------------------------|
B|-------------------------------------------------------------------------|
G|-------------------------------------------------------------------------|
D|--------------------------------------66666666666666666/888888888888888--|
A|--88888888888888888/66666666666666666-44444444444444444/666666666666666--|
E|--66666666666666666/44444444444444444------------------------------------|


CHORUS [down strumming]
e|------------------------------------------------------------------------|
B|------------------------------------------------------------------------|
G|------------------------------------------------------------------------|
D|------------------------------------------------------------------------|
A|--8-8-8-8-8-8-8-8-8/6-6-6-6-6-6-6-6/3-3-3-3-3-3-3-3/4-4-4-4-4-4-4-4-----|
E|--6-6-6-6-6-6-6-6-6/4-4-4-4-4-4-4-4/1-1-1-1-1-1-1-1/2-2-2-2-2-2-2-2-----|


e|----------------------------------------------------------------------------|
B|----------------------------------------------------------------------------|
G|----------------------------------------------------------------------------|
D|----------------------------------------------------------------------------|
A|--8-8-8-8-8-8-8-8-8/10-10-10-10-10-10-10-10/3-3-3-3-3-3-3-3/4-4-4-4-4-4-4-4-|
E|--6-6-6-6-6-6-6-6-6/8--8--8--8--8--8--8--8-/1-1-1-1-1-1-1-1/2-2-2-2-2-2-2-2-|


Bridge [Slightly PM]
e|------------------------------------------------------|
B|------------------------------------------------------|
G|----------------3---1--3--3/5-------------------------|
D|-----3------------3-----------------------------------|
A|-------4----------------------------------------------|
E|--1----------2----------------------------------------|

Verse  [Slightly PM]
e|------------------------------------------------------|
B|------------------------------------------------------|
G|-----------------3--------------------3---1--3--3/5---|
D|--------3----------3-------3------------3-------------|
A|---1--4---4-------------------4-----------------------|
E|---------------4--------1----------2------------------| X2


PRE-CHORUS [up down strumming]
e|-------------------------------------------------------------------------|
B|-------------------------------------------------------------------------|
G|-------------------------------------------------------------------------|
D|--------------------------------------66666666666666666/888888888888888--|
A|--88888888888888888/66666666666666666-44444444444444444/666666666666666--|
E|--66666666666666666/44444444444444444------------------------------------|


CHORUS [down strumming]
e|------------------------------------------------------------------------|
B|------------------------------------------------------------------------|
G|------------------------------------------------------------------------|
D|------------------------------------------------------------------------|
A|--8-8-8-8-8-8-8-8-8/6-6-6-6-6-6-6-6/3-3-3-3-3-3-3-3/4-4-4-4-4-4-4-4-----|
E|--6-6-6-6-6-6-6-6-6/4-4-4-4-4-4-4-4/1-1-1-1-1-1-1-1/2-2-2-2-2-2-2-2-----|


e|----------------------------------------------------------------------------|
B|----------------------------------------------------------------------------|
G|----------------------------------------------------------------------------|
D|----------------------------------------------------------------------------|
A|--8-8-8-8-8-8-8-8-8/10-10-10-10-10-10-10-10/3-3-3-3-3-3-3-3/4-4-4-4-4-4-4-4-|
E|--6-6-6-6-6-6-6-6-6/8--8--8--8--8--8--8--8-/1-1-1-1-1-1-1-1/2-2-2-2-2-2-2-2-|


Solo
e|----------------------------------------------------------------------------|
B|----------------------------------------------------------------------------|
G|----------------------------------------------------------------------------|
D|--------------------------1111---1111----11--3333--3333--33--4444--4444--44-|
A|--11-4444-11-4444-1144-33------33------33--44----44----44--66----66----66---|
E|----------------------------------------------------------------------------|


e|---------------------------------------------------------------------------|
B|---------------------------------------------------------------------------|
G|---------------------------------------------------------------------------|
D|--------------------------1111---1111----11--3333--3333--33----------------|
A|--11-4444-11-4444-1144-33------33------33--44----44----44------------------|
E|---------------------------------------------------------------------------|


Bridge 2
e|-------------------------------------------------------------------|
B|-------------------------------------------------------------------|
G|-------------------------------------------------------------------|
D|-------------------------------------------------------------------|
A|---8888---8888---86------------------------------------------------|
E|---6696---6696---64------------------------------------------------|


CHORUS [down strumming]
e|------------------------------------------------------------------------|
B|------------------------------------------------------------------------|
G|------------------------------------------------------------------------|
D|------------------------------------------------------------------------|
A|--8-8-8-8-8-8-8-8-8/6-6-6-6-6-6-6-6/3-3-3-3-3-3-3-3/4-4-4-4-4-4-4-4-----|
E|--6-6-6-6-6-6-6-6-6/4-4-4-4-4-4-4-4/1-1-1-1-1-1-1-1/2-2-2-2-2-2-2-2-----|


e|----------------------------------------------------------------------------|
B|----------------------------------------------------------------------------|
G|----------------------------------------------------------------------------|
D|----------------------------------------------------------------------------|
A|--8-8-8-8-8-8-8-8-8/10-10-10-10-10-10-10-10/3-3-3-3-3-3-3-3/4-4-4-4-4-4-4-4-|
E|--6-6-6-6-6-6-6-6-6/8--8--8--8--8--8--8--8-/1-1-1-1-1-1-1-1/2-2-2-2-2-2-2-2-|


Post chorus [possibly up down strumming]
e|---------------------------------------------------------------|
B|---------------------------------------------------------------| \
G|---------------------------------------------------------------|  \
D|---------------------------------------------------------------|   \
A|--8-8-8-8-8-8-8-8-8/10-10-10-10-10-10-10-10--------------------|    \
E|--6-6-6-6-6-6-6-6-6/8--8--8--8--8--8--8--8---------------------|     \
								 |
			    [not sure about here]		 |X2
e|---------------------------------------------------------------|     /
B|---------------------------------------------------------------|    /
G|---------------------------------------------------------------|   /
D|--10-10-10-10-10-10-10-10/8-8-8-8-8-8-8-8-8--------------------|  /
A|--8--8--8--8--8--8--8--8-/6-6-6-6-6-6-6-6-6--------------------| /
E|---------------------------------------------------------------|


Outro
e|------------------------------------------------------------------|
B|------------------------------------------------------------------|
G|------------------------------------------------------------------|
D|------------------------------------------------------------------|
A|---8888---8888888888--8888---8888888888---8888-8888---------------|
E|---6666---6696669666--6666---6696669666---6666-6666---------------|


=============================================================================





Comments


Popular Adema tabs & chords
Immortal Bass Tabs
Betrayed Me Tabs
Blow It Away 1 Tabs
Immortal 1 Tabs
Pain Inside 1 Tabs
Speculum 4 Tabs
The Way You Like It 4 Tabs
Tornado Tabs
Trust Intro Tabs
What Doesnt Kill Us Intro Tabs


Song lyrics



↑ Back to top | Tablatures and chords are parodies/interpretations of the original songs. You may use it for private study, scholarship, research or language learning purposes only
© 2014 AZChords.com Contact us | Privacy policy | DMCA | Add/correct tabs | Request tabs | Top 50 tabs