» » »

Adema, Barricades In Time Tabs (ver.2)

Artists:  A B C D E F G H I J K L M N O P Q R S T U V W X Y Z # 

Barricades In Time Tabs (ver.2)

Adema Tabs
 Rating:
4/5 (4 votes)
Barricades In Time lessons Tabs too difficult? Try these video lessons and learn fast
                intro (x4)                       (x2)
e(---------)(-----------------------------------------------------------)
b(---------)(-----------------------------------------------------------)
g(---------)(-----------------------------------------------------------)
d(--10-8-9-)(--108910-10108911-111191011-11111111119999-108910-10108911-)
a(---------)(-----------------------------------------------------------)
D(---------)(-----------------------------------------------------------)

intro continued
e(-----------------)(---------------)
b(-----------------)(---------------)
g(-----------------)(--111110111110-)
d(--11111111119999-)(--111110111110-)
a(-----------------)(--9-9-8-9-9-8--)
D(-----------------)(---------------)

verse x3  (x2)                                    chorus x3
e(------------)(-------------------------------)(-----------------------)
b(------------)(-------------------------------)(-----------------------)
g(------------)(-------------------------------)(-----------------------)
d(----46-6467-)(----14-44-4442---01---0---01---)(-----------------------)
a(--7---------)(--4-------------3---1----1---4-)(--66810-4454-1131-1138-)
D(------------)(-------------------------------)(-----------------------)

(x4)                                            outro harmonics (x4)
e(----------------------------------------------------)(------------)(----)
b(----------------------------------------------------)(--------7---)(----)
g(--1010-1010101010-1010-1010101010-88-88888-88-88888-)(----------7-)(--5-)
d(--1010-1010101010-1010-1010101010-88-88888-88-88888-)(------7-----)(----)
a(---8-8--8-8-8-8-8--8-8--8-8-8-8-8-66-66666-66-66666-)(------------)(----)
D(----------------------------------------------------)(--799-------)(----)
            
Submit corrections

comments powered by Disqus
↑ Back to top | Adema Tabs for Barricades In Time. Lyrics for acoustic guitar and electric guitar. Tablatures and chords are parodies/interpretations of the original songs. You may use it for private study, scholarship, research or language learning purposes only