» » »

Adelitas Way, Sick Tabs (ver.1)

Artists:  A B C D E F G H I J K L M N O P Q R S T U V W X Y Z # 

Sick Tabs (ver.1)

Adelitas Way Tabs
Rating:
2/5 (2 votes)
Sick lessons Tabs too difficult? Try these video lessons and learn fast
                -----------------------------------------------------------------------------
-----------------------------------------------------------------------------

My version of the song; it's what I hear.  If anyone has any comments or possible corrections,
please let me know.
Listen to the song from rhythm and strumming. Enjoy!


Tuning: Drop C

Intro Pt 1:
Guitar 1
D|--------------------------------------------------------------------------|
A|--------------------------------------------------------------------------|
F|--------------------------------------------------------------------------|
C|--0-0-------------------------0-0-----------------------------------------|
G|--0-0-------------------------0-0-----------------------------------------|
C|--0-0-------------------------0-0-----------------------------------------|

Guitar 2
D|--------------------------------------------------------------------------|
A|----------10---10------8---8------10---10---------------------------------|
F|------7-7----7-----7-7---7----7-7----7-----7-7-9-7-10---------------------|
C|--------------------------------------------------------------------------|
G|--------------------------------------------------------------------------|
C|--------------------------------------------------------------------------|

Intro Pt 2:
Guitar 1
D|--------------------------------------------------------------------------|
A|--------------------------------------------------------------------------|
F|--------------------------------------------------------------------------|
C|--0-0-x-x-0-0-x-x-0-0-x-x-6p5p0-6p5\3p0--0-0-x-x-0-0-x-x-5r-----6p5\3-----|
G|--0-0-x-x-0-0-x-x-0-0-x-x-6p5p0-6p5\3p0--0-0-x-x-0-0-x-x-5r-----6p5\3-----|
C|--0-0-x-x-0-0-x-x-0-0-x-x-6p5p0-6p5\3p0--0-0-x-x-0-0-x-x-5r-----6p5\3-----|

Guitar 2
D|--------------------------------------------------------------------------|
A|--------------------------------------------------------------------------|
F|--7777-/-10101010-/-12121212-\-5555--| Play  |-----------7r---------------|
C|--xxxx-/-x-x-x-x--/-x-x-x-x--\-xxxx--|  3    |---- Then -x----------------|
G|--5555-/-8-8-8-8--/-10101010-\-3333--| Times |-----------5r---------------|
C|--------------------------------------------------------------------------|

Verse 1
Guitar 1
D|--------------------------------------------------------------------------|
A|--------------------------------------------------------------------------|
F|--------------------------------------------------------------------------|
C|--0-0--x-x----0-0--x-x----0-0--x-x-6p5p0-6p5\3p0--0-0--x-x----------------|
G|--0-0--x-x----0-0--x-x----0-0--x-x-6p5p0-6p5\3p0--0-0--x-x----------------|
C|--0-0--x-x----0-0--x-x----0-0--x-x-6p5p0-6p5\3p0--0-0--x-x----------------|

D|--------------------------------------------------------------------------|
A|--------------------------------------------------------------------------|
F|--------------------------------------------------------------------------|
C|--0-0--x-x----0-0--x-x----0-0--x-x-6p5p0-6p5\3----------------------------|
G|--0-0--x-x----0-0--x-x----0-0--x-x-6p5p0-6p5\3----------------------------|
C|--0-0--x-x----0-0--x-x----0-0--x-x-6p5p0-6p5\3----------------------------|

Chorus 1
Guitar 1
D|--------------------------------------------------------------------------|
A|--------------------------------------------------------------------------|
F|--------------------------------------------------------------------------|
C|--00000000--33333333--88888888--55555555--| Play  |-----------------------|
G|--00000000--33333333--88888888--55555555--|   2   |-----------------------|
C|--00000000--33333333--88888888--55555555--| Times |-----------------------|

Post Chorus
Guitar 1
D|--------------------------------------------------------------------------|
A|--------------------------------------------------------------------------|
F|--------------------------------------------------------------------------|
C|--0-0-x-x-0-0-x-x-0-0-x-x-6p5p0-6p5\3p0--0-0-x-x-0-0-x-x-5r-----6p5\3-----|
G|--0-0-x-x-0-0-x-x-0-0-x-x-6p5p0-6p5\3p0--0-0-x-x-0-0-x-x-5r-----6p5\3-----|
C|--0-0-x-x-0-0-x-x-0-0-x-x-6p5p0-6p5\3p0--0-0-x-x-0-0-x-x-5r-----6p5\3-----|

Guitar 2
D|--------------------------------------------------------------------------|
A|--------------------------------------------------------------------------|
F|--7777-/-10101010-/-12121212-\-5555--| Play  |-----------7r---------------|
C|--xxxx-/-x-x-x-x--/-x-x-x-x--\-xxxx--|  3    |---- Then -x----------------|
G|--5555-/-8-8-8-8--/-10101010-\-3333--| times |-----------5r---------------|
C|--------------------------------------------------------------------------|

Verse 2
Guitar 1
D|--------------------------------------------------------------------------|
A|--------------------------------------------------------------------------|
F|--------------------------------------------------------------------------|
C|--0-0--x-x----0-0--x-x----0-0--x-x-6p5p0-6p5/3p0--0-0--x-x----------------|
G|--0-0--x-x----0-0--x-x----0-0--x-x-6p5p0-6p5/3p0--0-0--x-x----------------|
C|--0-0--x-x----0-0--x-x----0-0--x-x-6p5p0-6p5/3p0--0-0--x-x----------------|

D|--------------------------------------------------------------------------|
A|--------------------------------------------------------------------------|
F|--------------------------------------------------------------------------|
C|--0-0--x-x----0-0--x-x----0-0--x-x-6p5p0-6p5/3--------| Gradually |-------|
G|--0-0--x-x----0-0--x-x----0-0--x-x-6p5p0-6p5/3----5b--|   Bend    |-------|
C|--0-0--x-x----0-0--x-x----0-0--x-x-6p5p0-6p5/3----5b--|  Strings  |-------|

Chorus 2
Guitar 1
D|--------------------------------------------------------------------------|
A|--------------------------------------------------------------------------|
F|--------------------------------------------------------------------------|
C|--00000000--33333333--88888888--55555555--| Play  |-----------------------|
G|--00000000--33333333--88888888--55555555--|   2   |-----------------------|
C|--00000000--33333333--88888888--55555555--| Times |-----------------------|

Bridge
Guitar 1
D|--------------------------------------------------------------------------|
A|--------------------------------------------------------------------------|
F|--------------------------------------------------------------------------|
C|--888888888888888--55555555555555--| Play  |------------------------------|
G|--888888888888888--55555555555555--|   2   |------------------------------|
C|--888888888888888--55555555555555--| Times |------------------------------|

Guitar 2
D|--------------------------------------------------------------------------|
A|--------------------------------------------------------------------------|
F|--77777\55555/77777\55555--| Play  |--------------------------------------|
C|--xxxxx\xxxxx/xxxxx\xxxxx--|   8   |--------------------------------------|
G|--55555\33333/55555\33333--| Times |--------------------------------------|
C|--------------------------------------------------------------------------|

Post Bridge
Guitar 1
D|--------------------------------------------------------------------------|
A|--------------------------------------------------------------------------|
F|--------------------------------------------------------------------------|
C|--0-0-------------------------0-0-----------------5r----------------------|
G|--0-0-------------------------0-0-----------------5r----------------------|
C|--0-0-------------------------0-0-----------------5r----------------------|

Chorus 3
Guitar 1
D|--------------------------------------------------------------------------|
A|--------------------------------------------------------------------------|
F|--------------------------------------------------------------------------|
C|--00000000--33333333--88888888--55555555--| Play  |-----------------------|
G|--00000000--33333333--88888888--55555555--|   2   |-----------------------|
C|--00000000--33333333--88888888--55555555--| Times |-----------------------|

Outro Pt 1:
Guitar 1
D|--------------------------------------------------------------------------|
A|--------------------------------------------------------------------------|
F|--------------------------------------------------------------------------|
C|--00000000--33333333--88888888--55555555--| Play  |-----------------------|
G|--00000000--33333333--88888888--55555555--|   2   |-----------------------|
C|--00000000--33333333--88888888--55555555--| Times |-----------------------|

Outro Pt 2:
Guitar 1
D|--------------------------------------------------------------------------|
A|--------------------------------------------------------------------------|
F|--------------------------------------------------------------------------|
C|--0-0-x-x-0-0-x-x-0-0-x-x-6p5p0-6p5\3p0--0-0-x-x-0-0-x-x-5r----6p5\3--0-0-|
G|--0-0-x-x-0-0-x-x-0-0-x-x-6p5p0-6p5\3p0--0-0-x-x-0-0-x-x-5r----6p5\3--0-0-|
C|--0-0-x-x-0-0-x-x-0-0-x-x-6p5p0-6p5\3p0--0-0-x-x-0-0-x-x-5r----6p5\3--0-0-|

Guitar 2
D|--------------------------------------------------------------------------|
A|--------------------------------------------------------------------------|
F|--7777-/-10101010-/-12121212-\-5555--| Play  |-----------7r---------------|
C|--xxxx-/-x-x-x-x--/-x-x-x-x--\-xxxx--|  3    |---- Then -x----------------|
G|--5555-/-8-8-8-8--/-10101010-\-3333--| Times |-----------5r---------------|
C|--------------------------------------------------------------------------|


************************************

| /   slide up
| \   slide down
| h   hammer-on
| p   pull-off
| ~   vibrato
| +   harmonic
| x   Mute note
| b   Bend
| pb  Pre-bend
| br  Bend release
| pbr Pre-bend release
| brb Bend release bend

************************************

Lyrics:

Verse 1:
I'm so sick of me, being sick of you,
And the way you look, all the things you do,
You drive me crazy, drive me crazy
Sick of being broke, can't pay the rent
I'm about to snap, I can't handle this
I'm going crazy, going crazy (going crazy)

Chorus 1:
If you're sick like me
There's no stopping now,
Try to break it up
And just let it out
If I was sick like you,
I would feed the fire
I would light it up
And watch it all drop down

Verse 2:
I'm so sick of my life
It's the same old trip,
Try to make it bend,
But it never gives
Look what you made me (what you made me)
Well I hate my boss,
He's a little b**ch
If he keeps it up,
I'll make him quit
Or I'll go crazy
I'm going crazy

Chorus 2:
If you're sick like me
There's no stopping now,
Try to break it up
And just let it out
If I was sick like you,
I would feed the fire
I would light it up
And watch it all drop down

Bridge:
(And watch it all drop down)

Post Bridge:
I'm so sick of me, being sick of you,
And the way you look, all the things you do,
You drive me crazy, drive me crazy
Yeah!

Chorus 3:
If you're sick like me
There's no stopping now,
Try to break it up
And just let it out
If I was sick like you,
I would feed the fire
I would light it up
And watch it all drop down

Outro Pt 1:
(If you're sick like me,
There's no stopping now)
There's no stopping now
(Watch it all drop down,
If you're sick like me)
Then you're sick like me!

Outro Pt 2
            

comments powered by Disqus
↑ Back to top | Adelitas Way Tabs for Sick. Lyrics for acoustic guitar and electric guitar. Tablatures and chords are parodies/interpretations of the original songs. You may use it for private study, scholarship, research or language learning purposes only