>
 >
Turning Tables 2

Turning Tables 2 Guitar Tabs

Adele - Turning Tables 2 chords, tabs, tablatures, lyrics

Guitar lessons | Add/correct | Request | Top 50 tabs Artists:  A B C D E F G H I J K L M N O P Q R S T U V W X Y Z 0-9

Turning Tables 2 Guitar Tabs – Adele

CD, Sheet music, Poster

Do you like Turning Tables 2? Share with your friends now
ChordsChords v2Chords v3Chords v4TabsTabs v2Tabs v3Tabs v4Ukulele
This is how I play this beautiful song with the guitar.
All the picking in the world cannot make up for the amazing piano though.
This is the best I could do to replicate it.
PM me if you have any questions or suggestions.

The real tune would require a capo on the 8th fret.
I keep it on the 5th because I wouldn't be able to sing those high notes
even if I practiced for 100 years. So I guess it's up to you...

D/G=[200233]
Em7=[022033]
Cadd9[x32033]

 Capo 5th fret

INTRO AND VERSE


     Em7                Cadd9
|-------------------------------------------------|
|------3---------3--------3--------3--------------|
|-----0-0-0-----0-0-0---0--0-0---0--0-0-----------|
|----2---2-----2---2---2-2--2---2-2--2------------|
|---2---------2-------3--------3------------------|
|--0---------0------------------------------------|

        Am                      C
|-------------------------------------------------|
|------1---------1---------1-------1-0------------|
|----2--2-2----2--2-2----0--0-0---0---0-0---------|
|---2-2--2----2-2--2----2-2--2---2-----2----------|
|--0---------0---------3--------3-----------------|
|-------------------------------------------------|



VERSE
Em7                         Cadd9
    Close enough to start a war
        Am            c
All that I have is on the floor
Em7                                    Cadd9
    God only knows what we're fighting for
        Am             C
All that I say, you always say more




PRE-CHORUS
[I usually just do some random picking with the Em and Am to get the lenghts I need.]

      C            Am
|------------------------------------------------|
|-------------------1----------------------------|
|-----0---0--------2-2-2-------------------------|
|----2---0--------2---2--------------------------|
|---3---2--------0-------------------------------|
|------------------------------------------------|

But I can't      keep up with your...
       C            Am
|------------------------------------------------|
|-------------------1----------------------------|
|-----0---0--------2-2-2-------------------------|
|----2---0--------2---2--------------------------|
|---3---2--------0-------------------------------|
|------------------------------------------------|

...turning      tables under...

      C          G            D/G
|------------------------------------------------------|
|-----------------3----------3-------------------------|
|----0--0--------0----------2--------------------------|
|---2--0--------0----------0---------------------------|
|--3--2------------------------------------------------|
|--------------3----------2----------------------------|

your thumb... I can't ....breathe


CHORUS

        Em7     C       G       G/D
|--------------------------------------------------|
|-----3--------0h1---------3-------3---------------|
|----0-0-0----0---0-0-----0-0-0---2-2-2------------|
|---2---2----2-----2-----0---0---0---0-------------|
|-----------3--------------------------------------|
|--0--------------------3-------2------------------|

So I won't let you close enough to hurt me

        Em7     C       G       Am

|-------------------------------------------------|
|-----3--------0h1---------3----------1-----------|
|----0-0-0----0---0-0-----0-0-0------2-2-2--------|
|---2---2----2-----2-----0---0------2---2---------|
|-----------3----------------------0--------------|
|--0--------------------3-------------------------|

No, I won't ask you, you to just desert me

        Em7     C           G      D/G
|-------------------------------------------------|
|-----3--------0h1---------3-------3--------------|
|----0-0-0----0---0-0-----0-0-0---2-2-2-----------|
|---2---2----2-----2-----0---0---0---0------------|
|-----------3-------------------------------------|
|--0--------------------3-------2-----------------|
I can't give you, what you think you gave me

    Am   G  C

|-----------0-------------------------------------|
|-----------1-------------------------------------|
|-----2--0--0-------------------------------------|
|----2--0---2-------------------------------------|
|---0--2----3-------------------------------------|
|-------------------------------------------------|

It's time to say goodbye


      To turning tables

     Em7                Cadd9
|-------------------------------------------------|
|------3---------3--------3--------3--------------|
|-----0-0-0-----0-0-0---0--0-0---0--0-0-----------|
|----2---2-----2---2---2-2--2---2-2--2------------|
|---2---------2-------3--------3------------------|
|--0---------0------------------------------------|

        Am                      C
|-------------------------------------------------|
|------1---------1---------1-------1-0------------|
|----2--2-2----2--2-2----0--0-0---0---0-0---------|
|---2-2--2----2-2--2----2-2--2---2-----2----------|
|--0---------0---------3--------3-----------------|
|-------------------------------------------------|


VERSE II
Under haunted skies I see you, ooh
Where love is lost, your ghost is found
I braved a hundred storms to leave you
As hard as you try, no I will never be knocked down


PRE-CHORUS

CHORUS

BRIDGE


[The picking is similar to that of the chorus]


Em7                       C
Next time I'll be braver, I'll be my own saviour
G                            Am
When the thunder calls for me
Em7                       C
Next time I'll be braver, I'll be my own saviour
G                       D/G
Standing on my own two feet

CHORUS

End





Comments


Popular Adele tabs & chords
Best For Last 3 Bass Tabs
Set Fire To The Rain Bass Tabs
Chasing Pavements 3 Chords
Chasing Pavements 4 Chords
Don't You Remember Chords
Make You Feel My Love 8 Chords
Set Fire To The Rain 6 Chords
Chasing Pavements Tabs
Rolling In The Deep 4 Tabs
One And Only Ukulele


Song lyrics



↑ Back to top | Tablatures and chords are parodies/interpretations of the original songs. You may use it for private study, scholarship, research or language learning purposes only
© 2014 AZChords.com Contact us | Privacy policy | DMCA | Add/correct tabs | Request tabs | Top 50 tabs