» » »

Adele, Set Fire To The Rain Tabs (ver.2)

Artists:  A B C D E F G H I J K L M N O P Q R S T U V W X Y Z # 

Set Fire To The Rain Tabs (ver.2)

Adele Tabs
 Rating:
4/5 (4 votes)
Set Fire To The Rain lessons Tabs too difficult? Try these video lessons and learn fast
1
                Adele - Set Fire to the Rain

Hi, you can find my video make with this tab on

Salut, vous trouverez la vidéo associé à cette

Capo : 5th fret 
Capo : 5ème case

Verse : Do that 4 times but you need to alternate the last 2 chords
Couplet : A faire 4 fois en alternant les 2 derniers accords

    Am
|---0--------------0-----------0---|
|-----------1--------------1-------|
|--------2----2--------2-----------|
|----------------------------------|
|---0------------------------------|
|----------------------------------|

   C
|----------------0h1p0-------------|
|----------1-------------3---------|
|-------0----0---------------------|
|----------------------------------|
|---3------------------------------|
|----------------------------------|

    G
|----------------------------------|
|----------0----3----0-------------|
|-------0----0----0----------------|
|----------------------------------|
|----------------------------------|
|---3------------------------------|

    Dm
|---1------------------1p0-------0---|
|---------------3------------3-------|
|-----------2------2-----------------| Do that first and third time
|-------0----------------------------| Faire ça la 1ere et 3ème fois
|------------------------------------| 
|------------------------------------|

   Am"
|------------------------------------|
|--1------------1-----1p0-----0------|
|------------0-----0-------2---------| Do that second et fourth time
|------------------------------------| Faire ça la 2ème et 4ème fois
|------------------------------------|
|------------------------------------|


Pre chorus :

    F
|---------------|
|---------0-----|
|------2----2---|
|---3-----------| X2
|---------------|
|---------------|

    Dm
|---------------|
|---------3-----|
|------2----2---| X2
|---0-----------|
|---------------|
|---------------|

    Am
|----------------|
|----------0-----|
|-------2----2---| X2
|----2-----------|
|----------------|
|----------------|
    Am
|----------------|
|----------1-----|
|-------2----2---|
|----2-----------| X2
|----------------|
|----------------|
     F
|------------------|
|----------0-------|
|-------2----2-----| X2
|----3-------------|
|------------------|
|------------------|
     G
|------------------------------|
|----------0----------0--------|
|-------0----0-----0----0------|
|------------------------------|
|------------------------------|
|----3-----------3---------3---|


Chorus :
Refrain : 

( Rythm : D UD UUD DU )
( Pour la rythmique je fais : B HB HHB BH )

           Am
But I set fire to the rain,
            G
Watched it pour as I touched your face,
           F
Well, it burned while I cried,
                                    Am(Dm ?)       G
'Cause I heard it screaming out your name, your name,
       Am
I set fire to the rain,
            G
And I threw us into the flames,
         F
Well, I felt something die,
                                     Am(Dm ?)          G
'Cause I knew that that was the last time, the last time,


Bridge :
Pont :

          F               C
Sometimes I wake up by the door,
               Em                     G
And heard you calling, must be waiting for you,
     F                    C
Even now when we're already over,
         Em                        G
I can't help myself from looking for you,


Finish the song with the chorus ;). Listen the
song to get how to play different parts .

Finir en jouant le refrain. Ecoutez la chanson
pour voir comment placer les différentes parties ;).
            
Submit corrections

comments powered by Disqus
↑ Back to top | Adele Tabs for Set Fire To The Rain. Lyrics for acoustic guitar and electric guitar. 1 Tablatures and chords are parodies/interpretations of the original songs. You may use it for private study, scholarship, research or language learning purposes only