» » »

Adele, Lovesong Tabs (ver.1)

Artists:  A B C D E F G H I J K L M N O P Q R S T U V W X Y Z # 

Lovesong Tabs (ver.1)

Adele Tabs
Rating:
4/5 (3 votes)
Hard to play? Try these video lessons and learn fast.
                -------------------------------------------------------------------------------
                          Adele - Lovesong
-------------------------------------------------------------------------------

Capo 8th fret

Intro and verses:

e|-----------------------------------------------------------------|
B|-----0-0-0---0-0-0---0-0------------0----------------------------|
G|-----0-0-0---0-0-0---0-0--4---4-4-0------------------------------|
D|---2--------0------------------4---4-4---------------------------|
A|------------------------3---------2------------------------------|
E|-----------------------------------------------------------------|

Chorus
                                        x 3
e|----------------------------------------------------|-------------------------|
B|----------------------------------------------------|-------------------------|
G|------0-0-0---0-0-0---0-0-0---0-0---(0-----)--------|-------0-0-0-------------|
D|------2-2-2---2-2-2-2-2-2-2-0-0-0--(0 or 2 )--------|-------2-2-2--1----------|
A|---3---------0--------------------------------------|----3--------2-----------|
E|----------------------------------------------------|-------------------------|

Whenever I'm alone with you
You make me feel like I am home again
Whenever I'm alone with you
You make me feel like I am whole again
Whenever I'm alone with you
You make me feel like I am young again
Whenever I'm alone with you
You make me feel like I am fun again

However far away I will always love you
However long I stay I will always love you
Whatever words I say I will always love you
I will always love you

Whenever I'm alone with you
You make me feel like I am free again
Whenever I'm alone with you
You make me feel like I am clean again

However far away I will always love you
However long I stay I will always love you
Whatever words I say I will always love you
I will always love you
            

comments powered by Disqus
↑ Back to top | Adele Tabs for Lovesong. Lyrics for acoustic guitar and electric guitar. Tablatures and chords are parodies/interpretations of the original songs. You may use it for private study, scholarship, research or language learning purposes only