» » »

I Do It For You Bass tabs (ver.2)

Artists:  A B C D E F G H I J K L M N O P Q R S T U V W X Y Z # 

I Do It For You Bass tabs (ver.2)

Adams Bryan
Rating:
0/5 (0 votes)

Hard to play? Try these video lessons and learn fast.
                (Everything I Do) I Do It For You
                 Words by Bryan Adams & 'Mutt' Lange
                       Music by Micheal Kamen

                     !!! IMPROVED VERSION !!!
Key:
\ or / = slide down or up
     h = hammer on
     b = bend
     | = bar lines (not correct, use as guide only)
     x2= play bar twice
     . = play note short
     

A Major/F# minor(Dorian mode?)
Tempo= 66

                                             |- - - x2|   
G-----------|--------|--------|--------------|--------|---------------
D-----------|--------|--------|--------------|--------|---------------
A-11\4--4-4-|-4--4-4-|--------|-----------6--|-4--4-4-|-044-------2/4-
E-----------|--------|-2--2-2-|--4--4-4--4-4-|--------|----2--2-2-----


            |- - - - - - - - x2|
G-----------|------------------|--------------|-----------|----------
D-----------|------------------|--------------|-----------|----------
A-----------|-44-6---4--6--6-6-|-46---4---4-4-|-4-6-------|-1/4--4-4-
E-4-4--4-4-4|------------------|--------------|----4--4-4-|----------
              



G--------------|----------|--------------|-------------|-------------
D--------------|----------|--------------|-------------|-------------
A-04--4-4--44--|2--2-2-/5-|--------------|2--2-2--2255-|-------------
E------------4-|----------|-0--0-0--02025|-------------|-2--2-2--2422
                        ^               
                      dont             
                     pick 5            


                                                  |- - - x2|- - - - x2
G--------|----------------------|----------------||--------|----------
D--------|----------------------|----------------||--------|----------
A-4--4-4-|-4546---666-----4--66-|6-4-66--6-------||--------|-244--4-4-
E--------|------4----4--7-------|.---------4/16--||-2--2-2-|----------
  ^                                          ^
  shift hand                                hold
  to 4th fret                               


G-------------|---------|---------------|-----------------|-----------
D-------------|---------|---------------|-----------------|-----------
A-4044--------|-4-------|-2h55-2-4--4-4-|-204--024---4444-|-6--6-6----
E-----22-2-2--|--2--2-2-|---------------|-----------------|-----------



              
G----------|--------------|-------------------|-------------|---------
D----------|--------------|-------------------|-------------|---------
A-4-6-4-6b-|--------------|-6---4-6--4-6-4-6b-|-------------|-4--4-4/6
E----------|-4--444--4444-|----7--------------|4--4-4-4-4447|---------
                                                                     ^
                                                                  dont
                                                                pick 6



G------------|-------|------------------------------------------------
D------------|-------|------------------------------------------------
A--------------------|-44---------------------------------------------
E-4--4-4-4444\2--2-2-|2---2-2-------END-------------------------------
                            ^
                            hold                  

Printing: load into Notepad, set left & right margins to 10mm
and then print.
            
Hard to play? Try these video lessons and learn fast. | Correct




comments powered by Disqus
↑ Back to top | Tablatures and chords are parodies/interpretations of the original songs. You may use it for private study, scholarship, research or language learning purposes only