» » »

Adams Bryan, Here I Am Tabs (ver.2)

Artists:  A B C D E F G H I J K L M N O P Q R S T U V W X Y Z # 

Here I Am Tabs (ver.2)

Adams Bryan Tabs
 Rating:
4/5 (4 votes)
Here I Am lessons Tabs too difficult? Try these video lessons and learn fast
                (Solo)
So here it is guys as promised before. I have tried my best to figure out the
solo part of the song.I know it's not 100% correct. It's about 95% accurate.....I
think so. If there's anything you feel which is not correct( that comes under 5%
of mistake), pls don't hesitate to share it with me.                  

|--12--14--12p0-0-0-----|
|-----------------------|
|-----------------------|  repeat 15 times
|-----------------------|
|-----------------------|
|-----------------------|

(this part is quite confusing. I am not sure if it is a guitar or some special
effect has been added)
|--------16-------------|--------------|
|-----------------------|--------------|            
|-----------------------|--------------|
|-----------------------|--------------|
|-----------------------|--------------|
|-----------------------|--------------|

|------12-12-12-12-12-12|-12------12-------12----|
|------12-12-12-12-12-12|-----12------12---------|
|-----------------------|------------------------|
|-----------------------|------------------------|
|-----------------------|------------------------|
|-----------------------|------------------------|


|--12\14-14-14-14-12--|7(pm)-7(pm)-7-7|--------|
|--12\14-14-14-14-12--|7(pm)-7(pm)-7-7|--------|
|---------------------|------------------------|
|---------------------|------------------------|
|---------------------|------------------------|
|---------------------|------------------------|

|----9(pm)-9(pm)--9-9-9-|7-7\9-9-9-9-7-----------|
|----9(pm)-9(pm)--9-9-9-|7-7\9-9-9-9-7-----------|
|-----------------------|------------------------|
|-----------------------|------------------------|
|-----------------------|------------------------|
|-----------------------|------------------------|

|----7-7-7-7-7----------|---0-0-0-0-0-0----------|
|----7-7-7-7-7----------|---5\7-7-7-7-5----------|
|-----------------------|------------------------|
|-----------------------|------------------------|
|-----------------------|------------------------|
|-----------------------|------------------------|

|------------------------|-----0-0-0-0-0-0--------|
|---------5--------------|-----5\9-9-9-9-7---5----|
|----4h6----6------------|--------------------6---|
|------------------------|------------------------|
|------------------------|------------------------|
|------------------------|------------------------|

|----4-4-4-5-4-5-4-5----|------------------------|
|----5-5-5-5-5-5-5-5----|------------------------|
|-----------------------|------------------------|
|-----------------------|------------------------|
|-----------------------|------------------------|
|-----------------------|------------------------|
            
Submit corrections

comments powered by Disqus
↑ Back to top | Adams Bryan Tabs for Here I Am. Lyrics for acoustic guitar and electric guitar. Tablatures and chords are parodies/interpretations of the original songs. You may use it for private study, scholarship, research or language learning purposes only