>
 >
Love Stinks

Love Stinks Guitar Tabs

Adam Sandler - Love Stinks chords, tabs, tablatures, lyrics

Guitar lessons | Add/correct | Request | Top 50 tabs Artists:  A B C D E F G H I J K L M N O P Q R S T U V W X Y Z 0-9

Love Stinks Guitar Tabs – Adam Sandler

CD, Sheet music, Poster

Do you like Love Stinks? Share with your friends now
Tabs
Love Stinks originally by the J. Geils Band
this is adam sandlers version of this song as heard on the wedding singer. it may be hard to play along with the movie, but its the actual song that i tabbed for, not adam's, but its pretty much the same thing...the movie just skips parts...anyways, im sure its 99 percent correct, just listen to the song for the timing and to get the sound right...so here ya go.enjoy.

key:
/ or \ = slide 
h = hammer on
p = pull off
~ = virbrato
x = muffled noise made when strumming strings when fret hand is gently lying 
across the strings
b = bend
r = release bend
p.m. = palm mute


theres only one guitar besides the bass
the guitar uses some phase and chorus mixed with distortion

intro...drums for the first five seconds, then this...
play 4 times...the keyboard and bass come in on the second time
e:-----------------------------------
B:-1--1-----8--8----6---6---8-x-x-8--
G:-0--0-----7--7----5---5---7-x-x-7--
D:-2--2-----5--5----3---3---5-x-x-5--
A:-3--3------------------------------
E:-----------------------------------

verse 1
play three times
   p.m................................)
e:--------------------------------------
B:-1---1------------1---1---------------
G:-0---0------------0---0---------------
D:-2---2------2-2---2---2 ----------2-2-
A:-3---3------3-3---3---3--3-3-3-3--3-3-
E:--------------------------------------
   
pre chorus
                    let ring....) "Love stinks"
e:-------------------------------
B:-/8----8--8----8--6------------
G:-/7----7--7----7--5------------
D:-/5----5--5----5--3------------
A:-------------------------------
E:-------------------------------

chorus
the first time come in on a slide from high on the neck down to 3rd fret on the A string
play four times
e:-----------------------------------
B:-1--1-----8--8----6---6---8-x-x-8--
G:-0--0-----7--7----5---5---7-x-x-7--
D:-2--2-----5--5----3---3---5-x-x-5--
A:-3--3------------------------------
E:-----------------------------------

then verse two is played, which the guitar is the same as verse one
then the prechorus then the chorus again, then it comes to this which can 
be called a keyboard solo i guess...the guitar plays the same as the verse, 
and the keyboard plays something like this a few times...along with some weird
effects...
e:-------------------------------
B:-------------------------------
G:-/5~----5-7b8r7-5--------------
D:------------------7--7p-5--5~-
A:-------------------------------
E:-------------------------------

then the pre chorus and chorus plays for about 7 times, then it fades out....
please rate modestly...heres the lyrics as heard on the original song...

verse1

you love her, but she loves him
and he loves somebody else, you just can't win
and so it goes till the day you die
this thing they call love is gonna make you cry

pre chorus 

i've had the blues, the hurt and the pain
one things for sure, love stinks

chorus

love stinks, yea yea (love stinks)
love stinks, yea yea (love stinks)
love stinks, yea yea (love stinks)
love stinks, yea yea (love stinks)

verse 2

two by two and side by side
love's gonna find you yes it is, you just cant hide
you'll hear it call, your heart will fall
then love will fly, its gone thats all

pre chorus

i dont care, put a tax on those things
all i can say is, love stinks

chorus

love stinks, yea yea (love stinks)
love stinks, yea yea (love stinks)
love stinks, yea yea (love stinks)
love stinks, yea yea (love stinks)

pre chorus

i've been through diamonds,  and i've been through winks
i've been through it all, love stinks

chorus

love stinks, yea yea (love stinks)
love stinks, yea yea (love stinks)
love stinks, yea yea (love stinks)
love stinks, yea yea (love stinks)





Comments


Popular Adam Sandler tabs & chords
Grow Old With You 1 Chords
Lunchlady Land Chords
The Hanukkah Song Chords
Wanna Grow Old With You Chords
Grow Old With You 4 Tabs
I Wanna Grow Old With You 1 Tabs
Kill Me Tabs
Love Stinks Intro Tabs
Seven Foot Man Tabs
At A Medium Pace Ukulele


Song lyrics



↑ Back to top | Tablatures and chords are parodies/interpretations of the original songs. You may use it for private study, scholarship, research or language learning purposes only
© 2014 AZChords.com Contact us | Privacy policy | DMCA | Add/correct tabs | Request tabs | Top 50 tabs