» » »

Adam Sandler, Grow Old With You Tabs (ver.3)

Artists:  A B C D E F G H I J K L M N O P Q R S T U V W X Y Z # 

Grow Old With You Tabs (ver.3)

Adam Sandler Tabs
Rating:
3/5 (1 vote)
Grow Old With You lessons Tabs too difficult? Try these video lessons and learn fast
                Grow Old With You

Tuning: Standard

e|----------------------------------|
B|----------2---2---2-----2--2--2---|
G|----------2---2---2-----2--2--2---|
D|----------2---2---2-----2--2--2---|
A|----------------------------------|
E|----------------------------------|
  I wanna make you smile

e|---2------2------2----2--2--2---|
B|---3------3------3----3--3--3---|
G|---4------4------4----4--4--4---|
D|---4------4------4----4--4--4---|
A|---2------2------2----2--2--2---|
E|---2------2------2----2--2--2---|
       Whenever you are sad

e|---4------4------4---------4----4---|
B|---5------5------5---------5----5---|
G|---6------6------6---------6----6---|
D|---6------6------6---------6----6---|
A|---4------4------4---------4----4---|
E|---4------4------4---------4----4---|
           Carry you around when your

e|------2---2---2-------2--2--2---|
B|------3---3---2-------3--3--3---|
G|------2---2---2-------2--2--2---|
D|--------------------------------|
A|--------------------------------|
E|--------------------------------|
   Arthritis is bad

e|--------------------------------|
B|---2-----2-----2------2--2--2---|
G|---2-----2-----2------2--2--2---|
D|---2-----2-----2------2--2--2---|
A|--------------------------------|
E|--------------------------------|
     All I wanna do

e|----------------2----2--2-----------------------------------------|
B|----------------3----3--3---2---2--2---2--2---2--2---2--2---------|
G|---1-----1--1---2----2--2---2---2--2---2--2---2--2---2--2----^1---|
D|---2-----2--2---------------2---2--2---2--2---2--2---2--2----^2---|
A|---2-----2--2------------------------------------------------^2---|
E|------------------------------------------------------------------|
       Is  grow  old   with  you

e|---------------------------------------|
B|---------------2---2---2-----2--2--2---|
G|---------------2---2---2-----2--2--2---|
D|---------------2---2---2-----2--2--2---|
A|---------------------------------------|
E|---------------------------------------|
  I’ll get your medicine

e|------2----2----2------2--2--2---|
B|------3----3----3------3--3--3---|
G|------4----4----4------4--4--4---|
D|------4----4----4------4--4--4---|
A|------2----2----2------2--2--2---|
E|------2----2----2------2--2--2---|
  When your tummy aches

e|---4------4------4-------4---4---4---|
B|---5------5------5-------5---5---5---|
G|---6------6------6-------6---6---6---|
D|---6------6------6-------6---6---6---|
A|---4------4------4-------4---4---4---|
E|---4------4------4-------4---4---4---|
         Build you a fire      if the

e|---2----2----2-------2--2--2---|
B|---3----3----2-------3--3--3---|
G|---2----2----2-------2--2--2---|
D|-------------------------------|
A|-------------------------------|
E|-------------------------------|
    Furnace breaks     oh,

e|------------------------------------|
B|---2-------2-------2------2--2--2---|
G|---2-------2-------2------2--2--2---|
D|---2-------2-------2------2--2--2---|
A|------------------------------------|
E|------------------------------------|
     It could be    so     nice

e|-----------------2-----2--2---------------------------|
B|-----------------3-----3--3----2----2--2----2--2--2---|
G|---1-----1--1----2-----2--2----2----2--2----2--2--2---|
D|---2-----2--2------------------2----2--2----2--2--2---|
A|---2-----2--2-----------------------------------------|
E|------------------------------------------------------|
          Growin’ old    with   you

e|---3--3--3--3-----3--3---|
B|---2--2--2--2-----2--2---|
G|---2--2--2--2-----2--2---|
D|---2--2--2--2-----2--2---|
A|-------------------------|
E|-------------------------|
                      I’ll

e|---2----2----2--2--2--2------2----2----2--2--2--2---|
B|---3----3----3--3--3--3------3----3----3--3--3--3---|
G|---2----2----2--2--2--2------2----2----2--2--2--2---|
D|----------------------------------------------------|
A|----------------------------------------------------|
E|----------------------------------------------------|
    Miss      you             Kiss      you

e|------------------------------------------------------|
B|---2-----2----2--2--2--2------2-----2----2--2--2--2---|
G|---2-----2----2--2--2--2------2-----2----2--2--2--2---|
D|---2-----2----2--2--2--2------2-----2----2--2--2--2---|
A|------------------------------------------------------|
E|------------------------------------------------------|
   Give you my coat     when   you are     cold

e|---2----2----2--2--2--2------2----2----2--2--2--2---|
B|---3----3----3--3--3--3------3----3----3--3--3--3---|
G|---2----2----2--2--2--2------2----2----2--2--2--2---|
D|----------------------------------------------------|
A|----------------------------------------------------|
E|----------------------------------------------------|
    Need      you             Feed      you

e|--------------------------------2-------------------2---|
B|--------------------------------3-------------------3---|
G|----1-------------------1-------2-------------------2---|
D|----2-------------------2-------------------------------|
A|----2-------------------2-------------------------------|
E|--------------------------------------------------------|
     Even let you hold the remote control

e|----------------------------------|
B|------2-----2-----2-----2--2--2---|
G|------2-----2-----2-----2--2--2---|
D|------2-----2-----2-----2--2--2---|
A|----------------------------------|
E|----------------------------------|
    So let me do the dishes in our

e|---2----2----2-------2--2--2---|
B|---3----3----3-------3--3--3---|
G|---4----4----4-------4--4--4---|
D|---4----4----4-------4--4--4---|
A|---2----2----2-------2--2--2---|
E|---2----2----2-------2--2--2---|
        Kitchen sink

e|---4------4------4-------4----4----4---|
B|---5------5------5-------5----5----5---|
G|---6------6------6-------6----6----6---|
D|---6------6------6-------6----6----6---|
A|---4------4------4-------4----4----4---|
E|---4------4------4-------4----4----4---|
        Put you to bed   when you’ve had

e|---2------2------2-------2--2--2---|
B|---3------3------2-------3--3--3---|
G|---2------2------2-------2--2--2---|
D|-----------------------------------|
A|-----------------------------------|
E|-----------------------------------|
    Too much to drink

e|------------------------------------|
B|---2-------2-------2------2--2--2---|
G|---2-------2-------2------2--2--2---|
D|---2-------2-------2------2--2--2---|
A|------------------------------------|
E|------------------------------------|
  Oh I could be the man

e|-----------------2----2--2---------------------|
B|-----------------3----3--3---2---2--2---2--2---|
G|---1------1--1---2----2--2---2---2--2---2--2---|
D|---2------2--2---------------2---2--2---2--2---|
A|---2------2--2---------------------------------|
E|-----------------------------------------------|
        Who grows old   with  you

e|----------------^2-------------|
B|----------------^3--------^2---|
G|----^1----------^2--------^2---|
D|----^2--------------------^2---|
A|----^2-------------------------|
E|-------------------------------|
   I wanna grow old with you
            

comments powered by Disqus
↑ Back to top | Adam Sandler Tabs for Grow Old With You. Lyrics for acoustic guitar and electric guitar. Tablatures and chords are parodies/interpretations of the original songs. You may use it for private study, scholarship, research or language learning purposes only