» » »

Whataya Want From Me Tabs (ver.9)

Artists:  A B C D E F G H I J K L M N O P Q R S T U V W X Y Z # 

Whataya Want From Me Tabs (ver.9)

Adam Lambert
Rating:
0/5 (0 votes)

Hard to play? Try these video lessons and learn fast.
                
Tuning:EADGBe



Intro/Verses
e|---------------------------------------------------------------------------|
B|---------------------------------------------------------------------------|
G|-7~~~~7--6~~~~~~----11-11-11-11---------------11-11-11-11------------------|
D|-x----x--x-----------x--x--x--x----9-9~~~~~---x--x--x--x----9-9~~~~~-------|
A|-5~~~~5--4~~~~~~-----9--9--9--9----x-x~~~~~---9--9--9--9----x-x~~~~~-------|
E|-----------------------------------7-7~~~~~-----------------9-9~~~~~-------|

Chorus
e|---------------------------------------------------------------------------|
B|---------------------------------------------------------------------------|
G|--7-7-7--------------------------------------------------------------------|
D|--7-7-7----7-7-7----9-9-9----5-5-5-----------------------------------------|
A|--5-5-5----7-7-7----9-9-9----5-5-5-----------------------------------------|
E|-----------5-5-5----7-7-7----3-3-3-----------------------------------------|

Solo (2x) This is also played in the backgroung during the last chorus.
e|---------------------------------------------------------------------------|
B|--12~~~~10~~12-7~~~5~~7-3~~~2~~~~~~----------------------------------------|
G|-----------------------------------2---------------------------------------|
D|------------------------------------4~~~~~~~-------------------------------|
A|---------------------------------------------------------------------------|
E|---------------------------------------------------------------------------|

Order:
Intro 1x
Verse 4x
Chorus 5.5x
Verse 3x
Chorus 5.5x
Solo 2x
Verse 1x
Chorus 9.5x Background: Solo 2x (1st time during 5th and 6th chorus, 2nd during 
7th and 8th chorus)

| /  slide up
| \  slide down
| h  hammer-on
| p  pull-off
| ~  vibrato
| +  harmonic
| x  Mute note
===============================================================================
That's basically it. If you like it, rate and comment. If you don't like it, rate and comment.
            
Hard to play? Try these video lessons and learn fast. | Correct




comments powered by Disqus
↑ Back to top | Tablatures and chords are parodies/interpretations of the original songs. You may use it for private study, scholarship, research or language learning purposes only