» » »

Adam Lambert, Whataya Want From Me Tabs (ver.7)

Artists:  A B C D E F G H I J K L M N O P Q R S T U V W X Y Z # 

Whataya Want From Me Tabs (ver.7)

Adam Lambert Tabs
 Rating:
4/5 (4 votes)
Whataya Want From Me lessons Tabs too difficult? Try these video lessons and learn fast
                I guarantee you it's 100% 
correct. This is my first tab to post so please tell me how I did. Rate 
5 stars please. I'm hoping to get a lot of positive feedback from this. 
Thanks and enjoy 
Tuning: Standard (EADGBE) 
Difficulty: Intermediate ~~ = Sustain note INTRO
 
E|------------------------------------------|
B|------------------------------------------| 
G|7--7-6--11-11-11-11------11-11-11-11------| 
D|7--7-6--11-11-11-11-9-9~~11-11-11-11-9-9~~|(X6) 
A|5--5-4--9--9--9--9--9-9~~9--9--9--9--9-9~~| 
E|--------------------7-7~~------------7-7~~| 

CHORUS 
E|--------------------------------------------| 
B|--------------------------------------------| 
G|77777777----------1111111111111111-99999999-| 
D|77777777-77777777-1111111111111111-99999999-|(X2) 
A|55555555-77777777-9-9-9-9-9-9-9-9--77777777-| 
E|---------55555555---------------------------| 

E|-----------------------------------| 
B|-----------------------------------| 
G|77777777----------1111111111111111-| 
D|77777777-77777777-1111111111111111-| 
A|55555555-77777777-9-9-9-9-9-9-9-9--| 
E|---------55555555------------------| 

Verse 1 
E|------------------------------------------| 
B|------------------------------------------| 
G|7--7-6--11-11-11-11------11-11-11-11------| 
D|7--7-6--11-11-11-11-9-9~~11-11-11-11-9-9~~|(X3) 
A|5--5-4--9--9--9--9--9-9~~9--9--9--9--9-9~~| 
E|--------------------7-7~~------------7-7~~| 

CHORUS 
E|--------------------------------------------| 
B|--------------------------------------------| 
G|77777777----------1111111111111111-99999999-| 
D|77777777-77777777-1111111111111111-99999999-|(X2) 
A|55555555-77777777-9-9-9-9-9-9-9-9--77777777-| 
E|---------55555555---------------------------| 

E|-----------------------------------| 
B|-----------------------------------| 
G|77777777----------1111111111111111-| 
D|77777777-77777777-1111111111111111-| 
A|55555555-77777777-9-9-9-9-9-9-9-9--| 
E|---------55555555------------------| 

SOLO 
E:|------------------------------------------| 
B:|12--10-12---------------------------------| 
G:|---------11~~-9-11------------------------| 
D:|-------------------12~~-12-11-------------|(X2) 
A:|--------------------------------12-9~~~~--| 
E:|------------------------------------------| 

Verse 2 
E|------------------------------------------| 
B|------------------------------------------| 
G|7--7-6--11-11-11-11------11-11-11-11------| 
D|7--7-6--11-11-11-11-9-9~~11-11-11-11-9-9~~| 
A|5--5-4--9--9--9--9--9-9~~9--9--9--9--9-9~~| 
E|--------------------7-7~~------------7-7~~| 

Extro 
E|--------------------------------------------| 
B|--------------------------------------------| 
G|77777777----------1111111111111111-99999999-| 
D|77777777-77777777-1111111111111111-99999999-|(X4) 
A|55555555-77777777-9-9-9-9-9-9-9-9--77777777-| 
E|---------55555555---------------------------|

E|-----------------------------------| 
B|-----------------------------------| 
G|77777777----------1111111111111111~| 
D|77777777-77777777-1111111111111111~| 
A|55555555-77777777-9-9-9-9-9-9-9-9~~| 
E|---------55555555------------------|
            
Submit corrections

comments powered by Disqus
↑ Back to top | Adam Lambert Tabs for Whataya Want From Me. Lyrics for acoustic guitar and electric guitar. Tablatures and chords are parodies/interpretations of the original songs. You may use it for private study, scholarship, research or language learning purposes only