» » »

Adam Green, We're Not Supposed To Be Lovers Tabs (ver.2)

Artists:  A B C D E F G H I J K L M N O P Q R S T U V W X Y Z # 

We're Not Supposed To Be Lovers Tabs (ver.2)

Adam Green Tabs
 Rating:
4/5 (4 votes)
We're Not Supposed To Be Lovers lessons Tabs too difficult? Try these video lessons and learn fast
1
                
Adam Green - We're not supposed to be lovers


I think this is sort of correct, not 100% sure though
any corrections welcome :)

Standard Tuning. Capo 3rd fret.

Intro
e|-----------------------------------------------------------------|
B|---------1------------1------------1------------1----------------|
G|------0---0--------0---0-------0---0-------0---0-----------------|
D|----2--------2---2-------2---2-------2---2-------2---------------|
A|--3-------------3-----------3------------3-----------------------|
E|-----------------------------------------------------------------|


Verse 1
e|-----------------------------------------------------------------|
B|---------1------------1-----------0------------0-----------------|
G|------0---0--------0---0------0---0-------0---0------------------|
D|----2--------2---2-------2--2-------2---2-------2----------------|
A|--3-------------3-----------2-----------2------------------------|
E|-----------------------------------------------------------------|

Picture a place that's far from danger

e|-----------------------------------------------------------------|
B|---------1------------1-----------0------------0-----------------|
G|------0---0--------0---0------0---0-------0---0------------------|
D|----2--------2---2-------2--2-------2---2-------2----------------|
A|--3-------------3-----------2-----------2------------------------|
E|-----------------------------------------------------------------|

A nicer place to cash your chips

e|-----------------------------------------------------------------|
B|---------1------------1-----------1------------1-----------------|
G|------2---2--------2---2------2---2-------2---2------------------|
D|----3--------3---3-------3--3-------3---3-------3----------------|
A|--3-------------3-----------3-----------3------------------------|
E|-----------------------------------------------------------------|

I'm not the one holding you hostage

e|-----------------------------------------------------------------|
B|---------1------------1------------1------------1----------------|
G|------0---0--------0---0-------0---0-------0---0-----------------|
D|----2--------2---0-------0---2-------2---2-------2---------------|
A|--3--------------------------3------------3----------------------|
E|----------------3------------------------------------------------|

Squeezed inbetween my lips



Chorus
e|-----------------------------------------------------------------|
B|---------1------------1-----------0------------0-----------------|
G|------0---0--------0---0------0---0-------0---0------------------|
D|----2--------2---2-------2--2-------2---2-------2----------------|
A|--3-------------3-----------2-----------2------------------------|
E|-----------------------------------------------------------------|

We're not supposed to be lovers

e|-----------------------------------------------------------------|
B|---------1------------1-----------0------------0-----------------|
G|------0---0--------0---0------0---0-------0---0------------------|
D|----2--------2---2-------2--2-------2---2-------2----------------|
A|--3-------------3-----------2-----------2------------------------|
E|-----------------------------------------------------------------|

Or friends, like they'd have us believe

e|-----------------------------------------------------------------|
B|---------1------------1-----------1------------1-----------------|
G|------2---2--------2---2------2---2-------2---2------------------|
D|----3--------3---3-------3--3-------3---3-------3----------------|
A|--3-------------3-----------3-----------3------------------------|
E|-----------------------------------------------------------------|

We're not supposed to know each other

e|-----------------------------------------------------------------|
B|---------1------------1------------1------------1----------------|
G|------0---0--------0---0-------0---0-------0---0-----------------|
D|----2--------2---0-------0---2-------2---2-------2---------------|
A|--3--------------------------3------------3----------------------|
E|----------------3------------------------------------------------|

Accept my apology



Verse 2
e|-----------------------------------------------------------------|
B|---------1------------1-----------0------------0-----------------|
G|------0---0--------0---0------0---0-------0---0------------------|
D|----2--------2---2-------2--2-------2---2-------2----------------|
A|--3-------------3-----------2-----------2------------------------|
E|-----------------------------------------------------------------|

I was a babe stuck in a tree branch

e|-----------------------------------------------------------------|
B|---------1------------1-----------0------------0-----------------|
G|------0---0--------0---0------0---0-------0---0------------------|
D|----2--------2---2-------2--2-------2---2-------2----------------|
A|--3-------------3-----------2-----------2------------------------|
E|-----------------------------------------------------------------|

Banging on my rusty cradle bars

e|-----------------------------------------------------------------|
B|---------1------------1-----------1------------1-----------------|
G|------2---2--------2---2------2---2-------2---2------------------|
D|----3--------3---3-------3--3-------3---3-------3----------------|
A|--3-------------3-----------3-----------3------------------------|
E|-----------------------------------------------------------------|

Until i stole your middle finger

e|-----------------------------------------------------------------|
B|---------1------------1------------1------------1----------------|
G|------0---0--------0---0-------0---0-------0---0-----------------|
D|----2--------2---0-------0---2-------2---2-------2---------------|
A|--3--------------------------3------------3----------------------|
E|----------------3------------------------------------------------|

Now who's the one in charge?


Chorus
e|-----------------------------------------------------------------|
B|---------1------------1-----------0------------0-----------------|
G|------0---0--------0---0------0---0-------0---0------------------|
D|----2--------2---2-------2--2-------2---2-------2----------------|
A|--3-------------3-----------2-----------2------------------------|
E|-----------------------------------------------------------------|

We're not supposed to be lovers

e|-----------------------------------------------------------------|
B|---------1------------1-----------0------------0-----------------|
G|------0---0--------0---0------0---0-------0---0------------------|
D|----2--------2---2-------2--2-------2---2-------2----------------|
A|--3-------------3-----------2-----------2------------------------|
E|-----------------------------------------------------------------|

Or friends, like they'd have us believe

e|-----------------------------------------------------------------|
B|---------1------------1-----------1------------1-----------------|
G|------2---2--------2---2------2---2-------2---2------------------|
D|----3--------3---3-------3--3-------3---3-------3----------------|
A|--3-------------3-----------3-----------3------------------------|
E|-----------------------------------------------------------------|

We're not supposed to know each other

e|-----------------------------------------------------------------|
B|---------1------------1------------1------------1----------------|
G|------0---0--------0---0-------0---0-------0---0-----------------|
D|----2--------2---0-------0---2-------2---2-------2---------------|
A|--3--------------------------3------------3----------------------|
E|----------------3------------------------------------------------|

Accept my apology



Bridge*

C          G
Vein underground
C    G    F
Fist face down
Em                     G
Bruise as they heal my pain
C            Em
Food on the flight
C     G    F
Breakfast bite
Em                            G
Dropped from the orange juice crane


Verse 3
e|-----------------------------------------------------------------|
B|---------1------------1-----------0------------0-----------------|
G|------0---0--------0---0------0---0-------0---0------------------|
D|----2--------2---2-------2--2-------2---2-------2----------------|
A|--3-------------3-----------2-----------2------------------------|
E|-----------------------------------------------------------------|

Picture a person you've forgotten

e|-----------------------------------------------------------------|
B|---------1------------1-----------0------------0-----------------|
G|------0---0--------0---0------0---0-------0---0------------------|
D|----2--------2---2-------2--2-------2---2-------2----------------|
A|--3-------------3-----------2-----------2------------------------|
E|-----------------------------------------------------------------|

Kissing your brother or your friend

e|-----------------------------------------------------------------|
B|---------1------------1-----------1------------1-----------------|
G|------2---2--------2---2------2---2-------2---2------------------|
D|----3--------3---3-------3--3-------3---3-------3----------------|
A|--3-------------3-----------3-----------3------------------------|
E|-----------------------------------------------------------------|

Picture a wounded entertainer

e|------------------------------------------------------------3--0------------|
B|---------1------------1------------1------------1--------------3--1---------|
G|------0---0--------0---0-------0---0-------0---0----------------------------|
D|----2--------2---0-------0---2-------2---2-------2--------------------------|
A|--3--------------------------3------------3---------------------------------|
E|----------------3-----------------------------------------------------------|

Cutting his hair again
            
Submit corrections

comments powered by Disqus
↑ Back to top | Adam Green Tabs for We're Not Supposed To Be Lovers. Lyrics for acoustic guitar and electric guitar. 1 Tablatures and chords are parodies/interpretations of the original songs. You may use it for private study, scholarship, research or language learning purposes only