» » »

Adam Ant, Goody Two Shoes Tabs (ver.1)

Artists:  A B C D E F G H I J K L M N O P Q R S T U V W X Y Z # 

Goody Two Shoes Tabs (ver.1)

Adam Ant Tabs
 Rating:
4.6/5 (10 votes)
Goody Two Shoes lessons Tabs too difficult? Try these video lessons and learn fast
1
                There was none of this tab on here, and even though I Like the heavier stuff better, I still love this song!

Goody Two Shoes~Adam Ant


|-------------|-------------|-----------|---------------|
|-------------|-------------|-----------|---------------|
|-2-2-2---2---|-2-2-2-------|-----------|-2-------------|
|-------4---4-|-------4-2---|-2-2-2-----|---4-2---------|
|-------------|-----------4-|-------4-2-|-------4-2-2-0-|
|-------------|-------------|-----------|---------------|


(repeat 11 times)

|--------------|-------------|-----------|---------------|
|--3-3-3---3---|-3-3-3-------|-----------|-3-------------|
|*-------4---4-|-------4-2---|-2-2-2-----|---4-2--------*|
|*-------------|-----------4-|-------4-2-|-------4-2-2-0*|
|--------------|-------------|-----------|---------------|
|--------------|-------------|-----------|---------------|


|-------------|-------------|-----------|---------------|
|-------------|-------------|-----------|---------------|
|-4-4-4---4---|-4-4-4-------|-----------|-4-------------|
|-------6---6-|-------6-4---|-4-4-4-----|---6-4---------|
|-------------|-----------6-|-------6-4-|-------6-4-4---|
|-------------|-------------|-----------|-------------7-|


|-------------|-------------|-----------|---------------|
|-------------|-------------|-----------|---------------|
|-5-5-5---5---|-5-5-5-------|-----------|-5-------------|
|-------7---5-|-------7-5---|-5-5-5-----|---7-5---------|
|-------------|-----------7-|-------7-5-|-------7-5-5---|
|-------------|-------------|-----------|-------------8-|


|-------------|-------------|-----------|---------------|
|-------------|-------------|-----------|---------------|
|-2-2-2---2---|-2-2-2-------|-----------|-2-------------|
|-------4---4-|-------4-2---|-2-2-2-----|---4-2---------|
|-------------|-----------4-|-------4-2-|-------4-2-2-0-|
|-------------|-------------|-----------|---------------|


(repeat 5 times)

|-----|
|-----|
|-----|
|-----|
|-6-7-|
|-4-5-|

This is my first tab.  Tell me how I did!!!
            
Submit corrections

comments powered by Disqus
↑ Back to top | Adam Ant Tabs for Goody Two Shoes. Lyrics for acoustic guitar and electric guitar. 1 Tablatures and chords are parodies/interpretations of the original songs. You may use it for private study, scholarship, research or language learning purposes only