» » »

The Crossing Tabs (ver.1)

Artists:  A B C D E F G H I J K L M N O P Q R S T U V W X Y Z # 

The Crossing Tabs (ver.1)

Acoustic Alchemy
Rating:
0/5 (0 votes)

Tabs too difficult? Try these video lessons and learn fast.
                
Here is the basic melody (in the key of E)...

-|-------------------------|-------------------------|-|----------------------|
-|-------------------------|-------9-12-12-9-12-12-9-|-|----------------------|
-|-9-11-8------------------|-----9-------------------|-|----------------------|
-|--------11-9-9/11-9----9-|-/11---------------------|-|----------------------|
-|--------------------12---|-------------------------|-|----------------------|
-|-------------------------|-------------------------|-|----------------------|

-|--------------------------|----------|--------------------------------------|
-|------9-------------------|------9---|--------------------------------------|
-|-------------9--8--9p8----|--------9-|--------------------------------------|
-|-9/11---9/11-----------11-|-9/11-----|--------------------------------------|
-|--------------------------|----------|--------------------------------------|
-|--------------------------|----------|--------------------------------------|

-|----------------------------|-----------|-----------------------------------|
-|------9--------12-----------|-----------|-----------------------------------|
-|-------------9----8--9p8----|-----------|-----------------------------------|
-|-9/11---9/11-------------11-|------11\9-|-----------------------------------|
-|----------------------------|-9/11------|-----------------------------------|
-|----------------------------|-----------|-----------------------------------|

-|----11-12-11-------|----------------------------|---------------------------|
-|-14----------12----|----14--------12--9---------|---------------------------|
-|----------------11-|-13-----11------------9-----|---------------------------|
-|-------------------|-------------------------11-|---------------------------|
-|-------------------|----------------------------|---------------------------|
-|-------------------|----------------------------|---------------------------|

-|-------------------|-----------------------|----------11----------|---------|
-|-------------------|-----------------------|-------------12-------|---------|
-|-8-9-8h9p8h9p8h9p8-|-9-11-9h11p9h11p9h11p9-|-11/13\11-------11-\9-|---------|
-|-------------------|-----------------------|----------------------|---------|
-|-------------------|-----------------------|----------------------|---------|
-|-------------------|-----------------------|----------------------|---------|

-|--------------------------------------------------|-------------------------|
-|-99999999999999-101010101010101010-99999999999999-|-------------------------|
-|--------------------------------------------------|-------------------------|
-|--------------------------------------------------|-------------------------|
-|--------------------------------------------------|-------------------------|
-|--------------------------------------------------|-------------------------|
            
Tabs too difficult? Try these video lessons and learn fast.




comments powered by Disqus
↑ Back to top | Tablatures and chords are parodies/interpretations of the original songs. You may use it for private study, scholarship, research or language learning purposes only