» » »

Acoustic Alchemy, Lilac Lane Tabs (ver.1)

Artists:  A B C D E F G H I J K L M N O P Q R S T U V W X Y Z # 

Lilac Lane Tabs (ver.1)

Acoustic Alchemy Tabs
 Rating:
4/5 (4 votes)
Lilac Lane lessons Tabs too difficult? Try these video lessons and learn fast
                
-|---------------------------|----------------------------|-------------------|
-|------------------11-------|---------8------------------|-------------------|
-|-10/12----10-8-10----10/12-|-10-8-10---10-8----8-10-/12-|----7-8-10-10/12---|
-|---------------------------|----------------10----------|-10----------------|
-|---------------------------|----------------------------|-------------------|
-|---------------------------|----------------------------|-------------------|

-|------------------------|----10-10/11-10----------|-------------------------|
-|---------------11-------|-13-------------13-11----|-------------------------|
-|-12-12-10-8-10----10/12-|----------------------12-|-10h12p10/8--------------|
-|------------------------|-------------------------|-------------10-8-10-----|
-|------------------------|-------------------------|-------------------------|
-|------------------------|-------------------------|-------------------------|

-|---------|-----------------------|---------|-----------8-|-11-10------------|
-|---------|-----------8-----------|---------|-8-11-8-11---|------------------|
-|-10-8----|-8-10-8-10---10-8------|-10-8-10-|-------------|-------12-10------|
-|------10-|------------------10-8-|---------|-------------|------------------|
-|---------|-----------------------|---------|-------------|------------------|
-|---------|-----------------------|---------|-------------|------------------|

-|-------------|------------------|---------|-------------|-------------------|
-|-11/13-------|---------11-------|---------|-11/13-------|-------------------|
-|-------10/12-|-12-10-8----10/12-|-12/10-8-|-------10/12-|-12-10-8-10--------|
-|-------------|------------------|---------|-------------|------------10-----|
-|-------------|------------------|---------|-------------|-------------------|
-|-------------|------------------|---------|-------------|-------------------|

-|---------|------------------------------------------------------------------|
-|---------|------------------------------------------------------------------|
-|---------|------------------------------------------------------------------|
-|-10-8-10-|------------------------------------------------------------------|
-|---------|------------------------------------------------------------------|
-|---------|------------------------------------------------------------------|

-|---------------------------|----------------------------|-------------------|
-|---------------------------|---------8------------------|-------------------|
-|-10/12----10-8-10-8--------|-10-8-10---10-8----8-10-/12-|----7-8-10-10/12---|
-|--------------------10-10--|----------------10----------|-10----------------|
-|---------------------------|----------------------------|-------------------|
-|---------------------------|----------------------------|-------------------|

-|------------------------|----10-10/11-10----------|-------------------------|
-|---------------11-------|-13-------------13-11----|-------------------------|
-|-12-12-10-8-10----10/12-|----------------------12-|-10h12p10/8--------------|
-|------------------------|-------------------------|-------------10-8-10-----|
-|------------------------|-------------------------|-------------------------|
-|------------------------|-------------------------|-------------------------|

-|---------|-----------------------|---------|-----------8-|-11-10------------|
-|---------|-----------8-----------|---------|-8-11-8-11---|------------------|
-|-10-8----|-8-10-8-10---10-8------|-10-8-10-|-------------|-------12-10------|
-|------10-|------------------10-8-|---------|-------------|------------------|
-|---------|-----------------------|---------|-------------|------------------|
-|---------|-----------------------|---------|-------------|------------------|

-|-------------|------------------|---------|-------------|-------------------|
-|-11/13-------|---------11-------|---------|-11/13-------|-------------------|
-|-------10/12-|-12-10-8----10/12-|-12/10-8-|-------10/12-|-12-10-8-10--------|
-|-------------|------------------|---------|-------------|------------10-----|
-|-------------|------------------|---------|-------------|-------------------|
-|-------------|------------------|---------|-------------|-------------------|

-|---------|------------------------------------------------------------------|
-|---------|------------------------------------------------------------------|
-|---------|------------------------------------------------------------------|
-|-10-8-10-|------------------------------------------------------------------|
-|---------|------------------------------------------------------------------|
-|---------|------------------------------------------------------------------|

-|--------|-------|-----------------------------------------------------------|
-|-----11-|-------|-----11--11/13-11------------------------------------------|
-|-7-8----|-7-8---|-7-8--------------10/12-\11\10-8-10------------------------|
-|--------|-----8-|-----------------------------------------------------------|
-|--------|-------|-----------------------------------------------------------|
-|--------|-------|-----------------------------------------------------------|

-|--------|--------|-11-10----------------------------------------------------|
-|-----11-|-----11-|-----------13----11---------------------------------------|
-|-7-8----|-7-8----|-------12-----10----8-------------------------------------|
-|--------|--------|----------------------------------------------------------|
-|--------|--------|----------------------------------------------------------|
-|--------|--------|----------------------------------------------------------|

The
Solo...

-|----------------------------------------------------------------------------|
-|----------------------------------------------------------------------------|
-|----7-8-8---7-8-7-----------------------------------------------------------|
-|-10---------------10-8---8-8-8/10\8-----------------------------------------|
-|------------------------------------10-8------------------------------------|
-|----------------------------------------------------------------------------|

-|----------------------------------------------------------------------------|
-|-------------------------------------------11-11----------------------------|
-|---------------------7-7-8-8-10-10-10/12------------------------------------|
-|-----------8-8-10-10--------------------------------------------------------|
-|-8-8-10-10------------------------------------------------------------------|
-|----------------------------------------------------------------------------|

-|----------------------------------------------------------------------------|
-|-11/13-13----11---8---------------------------------------------------------|
-|----------10----8---7-8-7---------------------------------------------------|
-|--------------------------10-8-8/10-----------------------------------------|
-|------------------------------------8-10------------------------------------|
-|----------------------------------------------------------------------------|

-|----------------------------------------------------------------------------|
-|----------------------------------------------------------------------------|
-|----------------------------------------------------------------------------|
-|----8----8----8----8----8---------------------------------------------------|
-|-10---10---10---10---10-----------------------------------------------------|
-|----------------------------------------------------------------------------|

-|----------------------------------------------------------------------------|
-|----------------------------------------------------------------------------|
-|--------------------------------------------7-8-7---------------------------|
-|-10-10-8----10-8----10-8----8-10-10-8-10-10-------10-8-8/10-10--------------|
-|---------10------10------10-------------------------------------------------|
-|----------------------------------------------------------------------------|

-|-------10-11----------------------------------------------------------------|
-|-11/13----------------------------------------------------------------------|
-|-------------12-12----------------------------------------------------------|
-|----------------------------------------------------------------------------|
-|----------------------------------------------------------------------------|
-|----------------------------------------------------------------------------|

Repeat (and then again, very quickly)...

-|-11-11-------------------|-|------------------------------------------------|
-|-------11-11-13-13-11-11-|-|------------------------------------------------|
-|-------------------------|-|------------------------------------------------|
-|-------------------------|-|------------------------------------------------|
-|-------------------------|-|------------------------------------------------|
-|-------------------------|-|------------------------------------------------|

-|-11-11-10-10----------------------------------------------------------------|
-|-------------13-13-11-11-----------------8-8--------------------------------|
-|-------------------------12-12-10-10-8-8------------------------------------|
-|---------------------------------------------10-----------------------------|
-|----------------------------------------------------------------------------|
-|----------------------------------------------------------------------------|
            
Submit corrections

comments powered by Disqus
↑ Back to top | Acoustic Alchemy Tabs for Lilac Lane. Lyrics for acoustic guitar and electric guitar. Tablatures and chords are parodies/interpretations of the original songs. You may use it for private study, scholarship, research or language learning purposes only