>
 >
A Different Kind Of Freedom

A Different Kind Of Freedom Guitar Tabs

Acoustic Alchemy - A Different Kind Of Freedom chords, tabs, tablatures, lyrics

Guitar lessons | Add/correct | Request | Top 50 tabs Artists:  A B C D E F G H I J K L M N O P Q R S T U V W X Y Z 0-9

A Different Kind Of Freedom Guitar Tabs – Acoustic Alchemy

CD, Sheet music, Poster

Do you like A Different Kind Of Freedom? Share with your friends now
Tabs
A Different Kind Of Freedom (AGAINST THE GRAIN album)/
July 19,2002 -Friday- 11:29 a.m.

2 to 3 Guitars

Try this one, it's a tough one and im sure that you'll gonna love this...

Intro:
GUITAR 1
First Part
|--------------------------------------6-6-5-5----------5-5\3-3-3-1-1\0-0-0-0-1-1-0-0-----------|
|-------------5-5/6-6-6/5-3-3-1-1--------------6-6------------------------------------3-3-1-0-1-|
|-----0--0--------------------------5/7--7-5-5-5-5---3/5--5\3-3-3-2-2\0-0-0-0-2-2-0-0-----------|
|----2--2-----------------------------------------------------------------------------3-3-2-0-2-|
|---3--3--3---3-3/5-5-5/3-3---3-----------------------------------------------------------------|
|-----------------------------------------------------------------------------------------------|
silent or low hearing on this part
|------------------------|
|------------------------|
|-----0---2-0------------|
|----2-2-3---3-5---------|
|---3--------------------|
|------------------------|
GUITAR 2
|--------------------------------------------------------------------|
|----------------6-6\5-------------5--------------6-5----------------|
|-----0---2-0----5-5---7-7\5-5-4-5--5--2-0-----------7-5-4-----------|
|----2-2-3---3-5-------7-7\5-5-5-5----3---3-5-5-5---------7-5--------|
|---3-----------------------------------------5-5------------7-5-----|
|--------------------------------------------------------------------|

|--------------------------------------------------------------------|
|----------------6-6\5-------------5--------------6-5----------------|
|-----0---2-0----5-5---7-7\5-5-4-5--5--2-0-----------7-5-4-----------|
|----2-2-3---3-5-------7-7\5-5-5-5----3---3-5-5-5---------7-5--------|
|---3-----------------------------------------5-5------------7-5-----|
|--------------------------------------------------------------------|
GUITAR 3 enters this part 
|-----------------------13-12-10-------------------------------10-10\8--------------------|
|------------------13-13--------13-12-10----------------10-----10-10\8-10-10-8------------|
|---------------------------------------12-10-9--9-10-12--12-----------10-10-9-10-10--9---|
|----------------------------------------------12------------------------------10-10-10---|
|-----------------------------------------------------------------------------------------|
|-----------------------------------------------------------------------------------------|
GUITAR 2
|--------------------------------------------------------------------|
|----------------6-6\5-------------5--------------6-5----------------|
|-----0---2-0----5-5---7-7\5-5-4-5--5--2-0-----------7-5-4-----------|
|----2-2-3---3-5-------7-7\5-5-5-5----3---3-5-5-5---------7-5--------|
|---3-----------------------------------------5-5------------7-5-----|
|--------------------------------------------------------------------|
GUITAR 3 enters this part 
|-----------------------13-12-10-------------------------------10-10\8--------------------|
|------------------13-13--------13-12-10----------------10-----10-10\8-10-10-8------------|
|---------------------------------------12-10-9--9-10-12--12-----------10-10-9-10-10--9---|
|----------------------------------------------12------------------------------10-10-10---|
|-----------------------------------------------------------------------------------------|
|-----------------------------------------------------------------------------------------|
GUITAR 2
|--------------------------------------------------------------------|
|----------------6-6\5-------------5--------------6-5----------------|
|-----0---2-0----5-5---7-7\5-5-4-5--5--2-0-----------7-5-4-----------|
|----2-2-3---3-5-------7-7\5-5-5-5----3---3-5-5-5---------7-5--------|
|---3-----------------------------------------5-5------------7-5-----|
|--------------------------------------------------------------------|
GUITAR 3 enters this part 
|-----------------------13-12-10-------------------------------10-10\8--------------------|
|------------------13-13--------13-12-10----------------10-----10-10\8-10-10-8------------|
|---------------------------------------12-10-9--9-10-12--12-----------10-10-9-10-10--9---|
|----------------------------------------------12------------------------------10-10-10---|
|-----------------------------------------------------------------------------------------|
|-----------------------------------------------------------------------------------------|
GUITAR 2
|--------------------------------------------------------------------|
|----------------6-6\5-------------5--------------6-5----------------|
|-----0---2-0----5-5---7-7\5-5-4-5--5--2-0-----------7-5-4-----------|
|----2-2-3---3-5-------7-7\5-5-5-5----3---3-5-5-5---------7-5--------|
|---3-----------------------------------------5-5------------7-5-----|
|--------------------------------------------------------------------|
GUITAR 3 enters this part 
|-----------------------13-12-10-------------------------------10-10\8--------------------|
|------------------13-13--------13-12-10----------------10-----10-10\8-10-10-8------------|
|---------------------------------------12-10-9--9-10-12--12-----------10-10-9-10-10--9---|
|----------------------------------------------12------------------------------10-10-10---|
|-----------------------------------------------------------------------------------------|
|-----------------------------------------------------------------------------------------|
GUITAR 1
|----------------------------------------------------------|
|----------------------------------------------------------|
|---------5-5-5-------5-5-5-------5-5-5-------5-5-5--------|
|---3-3-3-5-5-5-3-3-3-5-5-5-3-3-3-5-5-5-3-3-3-5-5-5--------|
|---3-3-3-3-3-3-3-3-3-3-3-3-3-3-3-3-3-3-3-3-3-3-3-3--------|
|---1-1-1-------1-1-1-------1-1-1-------1-1-1--------------|

|----------------------------------------------------------|
|----------------------------------------------------------|
|---------5-5-5-------5-5-5-------5-5-5-3-3-3-5-5-5--------|
|---3-3-3-5-5-5-3-3-3-5-5-5-3-3-3-5-5-5-3-3-3-5-5-5--------|
|---3-3-3-3-3-3-3-3-3-3-3-3-3-3-3-3-3-3-1-1-1-3-3-3--------|
|---1-1-1-------1-1-1-------1-1-1--------------------------|

|----------------------------------------------------------|
|----------------------------------------------------------|
|---------5-5-5-------5-5-5-------5-5-5--------------------|
|---3-3-3-5-5-5-3-3-3-5-5-5-3-3-3-5-5-5-7-7-7-8-8-8--------|
|---3-3-3-3-3-3-3-3-3-3-3-3-3-3-3-3-3-3-7-7-7-8-8-8--------|
|---1-1-1-------1-1-1-------1-1-1-------5-5-5-6-6-6--------|
GUITAR 3 Joins guitar 1
|---10-10-10-10-12-8-12-10--121212121212-10-8-10-8-------------------|
|-------------------------------------------------8/10-8-------------|
|--------------------------------------------------------------------|
|--------------------------------------------------------------------|
|--------------------------------------------------------------------|
|--------------------------------------------------------------------|

|---101010101010-12-8-12-10--12-12-12-10-8-10-8----8-----------------|
|----------------------------------------------8/10------------------|
|--------------------------------------------------------------------|
|--------------------------------------------------------------------|
|--------------------------------------------------------------------|
|--------------------------------------------------------------------|
GUITAR 1
|---12-12-12-12-10-8-10-8----------12-12-12-12-12-12-10-8-10-8------8---|
|---13-13-13-13-10-8-10-8-8/10-8---13-13-13-13-13-13-10-8-10-8-8/10-8---|
|---12-12-12-12-----------7/9--7---12-12-12-12-12-12-----------7/9------|
|-----------------------------------------------------------------------|
|-----------------------------------------------------------------------|
|-----------------------------------------------------------------------|2x
GUITAR 3
|-------------------------------------8-10-12-10-8---15-12------------13-------------------|
|---------------------5-8-5-------8-10--------------------13--------13--15-12>slides-down--|
|----5-7-5---------5-7-----7-5---9--------------------------14-12/14-----------------------|
|---5-----7-5-7---5------------------------------------------------------------------------|
|------------------------------------------------------------------------------------------|
|------------------------------------------------------------------------------------------|
GUITAR 2
|--------------------------------------------------------------------|
|----------------6-6\5-------------5--------------6-5----------------|
|-----0---2-0----5-5---7-7\5-5-4-5--5--2-0-----------7-5-4-----------|
|----2-2-3---3-5-------7-7\5-5-5-5----3---3-5-5-5---------7-5--------|
|---3-----------------------------------------5-5------------7-5-----|
|--------------------------------------------------------------------|3x
GUITAR 3
|---1717-15-12------------13--------------------15-12------------13--------------------|
|-------------13--------13--15-----------------------13--------13--15-12>slides-down---|
|---------------14-12/14-------------------------------14-12/14------------------------|
|---------------------------15-15>slides-down------------------------------------------|
|--------------------------------------------------------------------------------------|
|--------------------------------------------------------------------------------------|

|---12-13-15-13-12---------------------------15-12---------13--------21-15-17-15---13-12--------|
|-----------------15-13-12------------------------13-----13--15-13---------------13-----15-13---|
|-------------------------14-12-10------------------12-14---------------------------------------|
|---------------------------------10/12-10------------------------------------------------------|
|-----------------------------------------------------------------------------------------------|
|-----------------------------------------------------------------------------------------------|

|--------------------------13-12-10-------------------------|
|----------------------------------13-12-10-----------------|
|---14-12----------------------------------12-10------------|
|--------14-12-10-----10------------------------12-10-------|
|----------------12-10--------------------------------------|
|-----------------------------------------------------------|
GUITAR 1
|----------------------------------------------------------|
|----------------------------------------------------------|
|---------5-5-5-------5-5-5-------5-5-5-------5-5-5--------|
|---3-3-3-5-5-5-3-3-3-5-5-5-3-3-3-5-5-5-3-3-3-5-5-5--------|
|---3-3-3-3-3-3-3-3-3-3-3-3-3-3-3-3-3-3-3-3-3-3-3-3--------|
|---1-1-1-------1-1-1-------1-1-1-------1-1-1--------------|

|----------------------------------------------------------|
|----------------------------------------------------------|
|---------5-5-5-------5-5-5-------5-5-5-3-3-3-5-5-5--------|
|---3-3-3-5-5-5-3-3-3-5-5-5-3-3-3-5-5-5-3-3-3-5-5-5--------|
|---3-3-3-3-3-3-3-3-3-3-3-3-3-3-3-3-3-3-1-1-1-3-3-3--------|
|---1-1-1-------1-1-1-------1-1-1--------------------------|

|----------------------------------------------------------|
|----------------------------------------------------------|
|---------5-5-5-------5-5-5-------5-5-5-3-3-3-5-5-5--------|
|---3-3-3-5-5-5-3-3-3-5-5-5-3-3-3-5-5-5-3-3-3-5-5-5--------|
|---3-3-3-3-3-3-3-3-3-3-3-3-3-3-3-3-3-3-1-1-1-3-3-3--------|
|---1-1-1-------1-1-1-------1-1-1--------------------------|

|----------------------------------------------------------|
|----------------------------------------------------------|
|---------5-5-5-------5-5-5-------5-5-5--------------------|
|---3-3-3-5-5-5-3-3-3-5-5-5-3-3-3-5-5-5-7-7-7-8-8-8--------|
|---3-3-3-3-3-3-3-3-3-3-3-3-3-3-3-3-3-3-7-7-7-8-8-8--------|
|---1-1-1-------1-1-1-------1-1-1-------5-5-5-6-6-6--------|
GUITAR 3 Joins guitar 1
|---10-10-10-10-12-8-12-10--10/1212-12-10-8-10-8---------------------|
|-------------------------------------------------8/10-8-------------|
|--------------------------------------------------------------------|
|--------------------------------------------------------------------|
|--------------------------------------------------------------------|
|--------------------------------------------------------------------|

|---101010101010-12-8-12-10--15-15/10--12-12-12-10-8-10-8----8-------|
|--------------------------------------------------------8/10--------|
|--------------------------------------------------------------------|
|--------------------------------------------------------------------|
|--------------------------------------------------------------------|
|--------------------------------------------------------------------|

|---10-10-10-10/12-8-12-10---12-12-12-12-12-10-8-10-8-----8----------|
|-----------------------------------------------------8/10-----------|
|---10-10-10-10/12-9-12-10---12-12-12-12-12-10-9-10-9----------------|
|--------------------------------------------------------------------|
|--------------------------------------------------------------------|
|--------------------------------------------------------------------|
GUITAR 1
|---12-12-12-12-10-8-10-8----------12-12-12-12-12-12-10-8-10-8------8---|
|---13-13-13-13-10-8-10-8-8/10-8---13-13-13-13-13-13-10-8-10-8-8/10-8---|
|---12-12-12-12-----------7/9--7---12-12-12-12-12-12-----------7/9------|
|-----------------------------------------------------------------------|
|-----------------------------------------------------------------------|
|-----------------------------------------------------------------------|2x
GUITAR 3
|------------------------------------8-10-12-13-12-10-8--1717-15-12-----------13----------------|
|---------------------5-8-5------8-10------------------------------13-------13--15>slides-down--|
|----5-7-5---------5-7-----77-5-------------------------------------12-12/14--------------------|
|---5-----7-5-7-5-5-----------------------------------------------------------------------------|
|-----------------------------------------------------------------------------------------------|
|-----------------------------------------------------------------------------------------------|
GUITAR 1
|---12-12-12-12-10-8-10-8----------12-12-12-12-12-12-10-8-10-8------8---|
|---13-13-13-13-10-8-10-8-8/10-8---13-13-13-13-13-13-10-8-10-8-8/10-8---|
|---12-12-12-12-----------7/9--7---12-12-12-12-12-12-----------7/9------|
|-----------------------------------------------------------------------|
|-----------------------------------------------------------------------|
|-----------------------------------------------------------------------|2x
GUITAR 3
|--------------------------8-------------8-10-12-10-8-----|
|---------------------5-6-8-8-6-5----8-10-----------------|
|----5-7-5---------5-7-----------5--9---------------------|
|---5-----7-5-7-5-5---------------------------------------|
|---------------------------------------------------------|
|---------------------------------------------------------|
GUITAR 2
|--------------------------------------------------------------------|
|----------------6-6\5-------------5--------------6-5----------------|
|-----0---2-0----5-5---7-7\5-5-4-5--5--2-0-----------7-5-4-----------|
|----2-2-3---3-5-------7-7\5-5-5-5----3---3-5-5-5---------7-5--------|
|---3-----------------------------------------5-5------------7-5-----|
|--------------------------------------------------------------------|2x
GUITAR 3
|-----------------------------------------|
|---------------3/5\3-------3/5\3---------|
|---2/4--------------5-----------5--------|
|------5-5---3/5---------3/5--------------|
|-----------------------------------------|
|-----------------------------------------|
GUITAR 2 together with a saxophone...
|--------------------------------------------------------------------|
|----------------6-6\5-------------5--------------6-5----------------|
|-----0---2-0----5-5---7-7\5-5-4-5--5--2-0-----------7-5-4-----------|
|----2-2-3---3-5-------7-7\5-5-5-5----3---3-5-5-5---------7-5--------|
|---3-----------------------------------------5-5------------7-5-----|
|--------------------------------------------------------------------|4x
GUITAR 1
|----------------------------------------------------------|
|----------------------------------------------------------|
|---------5-5-5-------5-5-5-------5-5-5-------5-5-5--------|
|---3-3-3-5-5-5-3-3-3-5-5-5-3-3-3-5-5-5-3-3-3-5-5-5--------|
|---3-3-3-3-3-3-3-3-3-3-3-3-3-3-3-3-3-3-3-3-3-3-3-3--------|
|---1-1-1-------1-1-1-------1-1-1-------1-1-1--------------|

|----------------------------------------------------------|
|----------------------------------------------------------|
|---------5-5-5-------5-5-5-------5-5-5-3-3-3-5-5-5--------|
|---3-3-3-5-5-5-3-3-3-5-5-5-3-3-3-5-5-5-3-3-3-5-5-5--------|
|---3-3-3-3-3-3-3-3-3-3-3-3-3-3-3-3-3-3-1-1-1-3-3-3--------|
|---1-1-1-------1-1-1-------1-1-1--------------------------|

|----------------------------------------------------------|
|----------------------------------------------------------|
|---------5-5-5-------5-5-5-------5-5-5-3-3-3-5-5-5--------|
|---3-3-3-5-5-5-3-3-3-5-5-5-3-3-3-5-5-5-3-3-3-5-5-5--------|
|---3-3-3-3-3-3-3-3-3-3-3-3-3-3-3-3-3-3-1-1-1-3-3-3--------|
|---1-1-1-------1-1-1-------1-1-1--------------------------|

|----------------------------------------------------------|
|----------------------------------------------------------|
|---------5-5-5-------5-5-5-------5-5-5--------------------|
|---3-3-3-5-5-5-3-3-3-5-5-5-3-3-3-5-5-5-7-7-7-8-8-8--------|
|---3-3-3-3-3-3-3-3-3-3-3-3-3-3-3-3-3-3-7-7-7-8-8-8--------|
|---1-1-1-------1-1-1-------1-1-1-------5-5-5-6-6-6--------|
GUITAR 3 Joins guitar 1
|---10-10-10-10-12-8-12-10--10/1212-12-10-8-10-8---------------------|
|-------------------------------------------------8/10-8-------------|
|--------------------------------------------------------------------|
|--------------------------------------------------------------------|
|--------------------------------------------------------------------|
|--------------------------------------------------------------------|

|---101010101010-12-8-12-10--15-15\10--12-12-12-10-8-10-8----8-------|
|--------------------------------------------------------8/10--------|
|--------------------------------------------------------------------|
|--------------------------------------------------------------------|
|--------------------------------------------------------------------|
|--------------------------------------------------------------------|

|---10-10-10-10/12-8-12-10---12-12-12-12-12-10-8-10-8-----8----------|
|-----------------------------------------------------8/10-----------|
|---10-10-10-10/12-9-12-10---12-12-12-12-12-10-9-10-9----------------|
|--------------------------------------------------------------------|
|--------------------------------------------------------------------|
|--------------------------------------------------------------------|
GUITAR 1
|---12-12-12-12-10-8-10-8----------12-12-12-12-12-12-10-8-10-8------8---|
|---13-13-13-13-10-8-10-8-8/10-8---13-13-13-13-13-13-10-8-10-8-8/10-8---|
|---12-12-12-12-----------7/9--7---12-12-12-12-12-12-----------7/9------|
|-----------------------------------------------------------------------|
|-----------------------------------------------------------------------|
|-----------------------------------------------------------------------|2x
GUITAR 3
|----------------------8-10-12-13-12-8>slides-down---15-12------------13--------------------|
|------------------8-10-----------------------------------13--------13--15-12>slides-down---|
|----5-7-5-------------------------------------------------14-12/14-------------------------|
|---5-----7-5-7-5---------------------------------------------------------------------------|
|-------------------------------------------------------------------------------------------|
|-------------------------------------------------------------------------------------------|
GUITAR 1
|---12-12-12-12-10-8-10-8----------12-12-12-12-12-12-10-8-10-8------8---|
|---13-13-13-13-10-8-10-8-8/10-8---13-13-13-13-13-13-10-8-10-8-8/10-8---|
|---12-12-12-12-----------7/9--7---12-12-12-12-12-12-----------7/9------|
|-----------------------------------------------------------------------|
|-----------------------------------------------------------------------|
|-----------------------------------------------------------------------|2x
GUITAR 3        here part mute          here part normal
|----------------------8-10-12-13-12-8---121212-131313-151515--------|
|------------------8-10------------------131313-131313-151515--------|
|----5-7-5-------------------------------121212-141414-161616--------|
|---5-----7-5-7-5----------------------------------------------------|
|--------------------------------------------------------------------|
|--------------------------------------------------------------------|
GUITAR 1
|---12-12-12-12-10-8-10-8----------12-12-12-12-12-12-10-8-10-8------8---|
|---13-13-13-13-10-8-10-8-8/10-8---13-13-13-13-13-13-10-8-10-8-8/10-8---|
|---12-12-12-12-----------7/9--7---12-12-12-12-12-12-----------7/9------|
|-----------------------------------------------------------------------|
|-----------------------------------------------------------------------|
|-----------------------------------------------------------------------|2x
GUITAR 3
|------------------12-----------------13-12-10---------------------17171717-15-12---------------|
|--------------------13--13---8-5-------------13-10-8----------------------------13--------13---|
|----5-7-5-------------12----9-5---------------------------------------------------12-12s14-----|
|---5-----7-5-7-5----------------7-5-----------------10>slides-down-----------------------------|
|-----------------------------------------------------------------------------------------------|
|-----------------------------------------------------------------------------------------------|
GUITAR 1
|---12-12-12-12-10-8-10-8----------12-12-12-12-12-12-10-8-10-8------8---|
|---13-13-13-13-10-8-10-8-8/10-8---13-13-13-13-13-13-10-8-10-8-8/10-8---|
|---12-12-12-12-----------7/9--7---12-12-12-12-12-12-----------7/9------|
|-----------------------------------------------------------------------|
|-----------------------------------------------------------------------|
|-----------------------------------------------------------------------|2x
GUITAR 3
|---13-----------------20-----------------------------------------|
|-----15-12>slides-down-------------------------------------------|
|-------------------------5-7-5------------5-7/5------------------|
|------------------------5-----7-5-7-5-5\7-----7-----5-7/5-------|
|--------------------------------------------------5\7-----7------|
|-----------------------------------------------------------------|





Comments


Popular Acoustic Alchemy tabs & chords
Alchemist Tabs
Clear Air For Miles Tabs
Kid Stuff Tabs
Lazeez Tabs
London Skyline Tabs
Mr Chow Tabs
No Messin Intro Tabs
Playing For Time Tabs
Tete A Tete 1 Tabs
Wind Of Change Tabs


Song lyrics



↑ Back to top | Tablatures and chords are parodies/interpretations of the original songs. You may use it for private study, scholarship, research or language learning purposes only
© 2014 AZChords.com Contact us | Privacy policy | DMCA | Add/correct tabs | Request tabs | Top 50 tabs