>
 >
Thin Red Line

Thin Red Line Guitar Tabs

A Change Of Pace - Thin Red Line chords, tabs, tablatures, lyrics

Guitar lessons | Add/correct | Request | Top 50 tabs Artists:  A B C D E F G H I J K L M N O P Q R S T U V W X Y Z 0-9

Thin Red Line Guitar Tabs – A Change Of Pace

CD, Sheet music, Poster

Do you like Thin Red Line? Share with your friends now
TabsTabs v2
Tuning: D A D G B e

(5)/(7)=harmonic
\=shotgun (slide your finger down the neck)
.=palm mute

Intro

e-|---------------------------------------------------------|
B-|---------------------------------------------------------|
G-|---------------------------------------------------------|
D-|-44------44------44------4440-0------00------00------000-|
A-|-44------44------44------4440-0(7)(7)00(7)(7)00(7)(7)000-|
D-|-44(5)(5)44(5)(5)44(5)(5)4440-0(7)(7)00(7)(7)00(7)(7)000-|

e-----------------------------------------------------------|
B-----------------------------------------------------------|
G-----------------------------------------------------------|
D---44------44------44------4440-0------00------00------000-|
A---44------44------44------4440-0(7)(7)00(7)(7)00(7)(7)000-|
D---44(5)(5)44(5)(5)44(5)(5)4440-0(7)(7)00(7)(7)00(7)(7)000-|

Verse

e-|---------------------------------------------------------\-----|
B-|---------------------------------------------------------------| \
G-|---------------------------------------------------------------|  \
D-|-44------44------44------4440-0------00------00------000-------|   \
A-|-44------44------44------4440-0(7)(7)00(7)(7)00(7)(7)000-------|    \
D-|-44(5)(5)44(5)(5)44(5)(5)4440-0(7)(7)00(7)(7)00(7)(7)000-------|     \
                                                                 2x
e-------------------------------------------------------------|    /
B-------------------------------------------------------------|   /
G-------------------------------------------------------------|  /
D---44------44------44------4447-77-7770-0-2-2----------------| /
A---44------44------44------4447-77-7770-0-2-2----------------|
D---44(5)(5)44(5)(5)44(5)(5)4447-77-7770-0-2-2----------------|

Pre-Chorus

Rhythm
e-|----------------|
B-|----------------|
G-|----------------|
D-|-44-00-77-99-7\-|
A-|-44-00-77-99-7\-|
D-|-44-00-77-99-7\-|

Lead
e-|----------------|
B-|----------------|
G-|----------77-6--|
D-|-99-77-66-------|
A-|----------------|
D-|----------------|

Chorus

Rhythm
e--|-----------------------------------------------------------------|
B--|-----------------------------------------------------------------|
G--|-----------------------------------------------------------------|
D-0|-00-00-2-22-22-4-44-44-4-4-4-4-0-00-00-2-22-22--44-444-444-4444--|
A-0|-00-00-2-22-22-4-44-44-4-4-4-4-0-00-00-2-22-22--44-444-444-4444--|
D-0|-00-00-2-22-22-4-44-44-4-4-4-4-0-00-00-2-22-22--44-444-444-4444--|

Lead
e-|----------------------------------------------------------------------------|
B-|----------14-14----------12-12---------------14-14---------------14-14------|
G-|-----14-14----------13-13-----13-13-----14-14-----14-14-----14-14-----14-14-|
D-|12-12----------14-14---------------16-16---------------12-12----------------|
A-|----------------------------------------------------------------------------|
D-|----------------------------------------------------------------------------|

Rhythm
e-------------------------------------------------------------------|
B-------------------------------------------------------------------|
G-------------------------------------------------------------------|
D-0-00-00-2-22-22-4-44-44-4-4-4-4-0-00-00-2-22-22--44-444-444-4444--|
A-0-00-00-2-22-22-4-44-44-4-4-4-4-0-00-00-2-22-22--44-444-444-4444--|
D-0-00-00-2-22-22-4-44-44-4-4-4-4-0-00-00-2-22-22--44-444-444-4444--|

Lead
e----------------------------------------------------------------------------|
B-----------14-14----------12-12-----14-14-----15-15-----14-14---------------|
G------14-14----------13-13-----13-13-----14-14-----14-14-----14-14-16-16-14-|
D-12-12----------14-14-------------------------------------------------------|
A----------------------------------------------------------------------------|
D----------------------------------------------------------------------------|

Verse

e-|---------------------------------------------------------\-----|
B-|---------------------------------------------------------------| \
G-|---------------------------------------------------------------|  \
D-|-44------44------44------4440-0------00------00------000-------|   \
A-|-44------44------44------4440-0(7)(7)00(7)(7)00(7)(7)000-------|    \
D-|-44(5)(5)44(5)(5)44(5)(5)4440-0(7)(7)00(7)(7)00(7)(7)000-------|     \
                                                                 2x
e-------------------------------------------------------------|    /
B-------------------------------------------------------------|   /
G-------------------------------------------------------------|  /
D---44------44------44------4447-77-7770-0-2-2----------------| /
A---44------44------44------4447-77-7770-0-2-2----------------|
D---44(5)(5)44(5)(5)44(5)(5)4447-77-7770-0-2-2----------------|

Pre-Chorus

Rhythm
e-|----------------|
B-|----------------|
G-|----------------|
D-|-44-77-99-77-7\-|
A-|-44-77-99-77-7\-|
D-|-44-77-99-77-7\-|

Lead
e-|----------------|
B-|----------------|
G-|----------77-6--|
D-|-99-77-66-------|
A-|----------------|
D-|----------------|

Chorus

Rhythm
e--|-----------------------------------------------------------------|
B--|-----------------------------------------------------------------|
G--|-----------------------------------------------------------------|
D-0|-00-00-2-22-22-4-44-44-4-4-4-4-0-00-00-2-22-22--44-444-444-4444--|
A-0|-00-00-2-22-22-4-44-44-4-4-4-4-0-00-00-2-22-22--44-444-444-4444--|
D-0|-00-00-2-22-22-4-44-44-4-4-4-4-0-00-00-2-22-22--44-444-444-4444--|

Lead
e-|----------------------------------------------------------------------------|
B-|----------14-14----------12-12---------------14-14---------------14-14------|
G-|-----14-14----------13-13-----13-13-----14-14-----14-14-----14-14-----14-14-|
D-|12-12----------14-14---------------16-16---------------12-12----------------|
A-|----------------------------------------------------------------------------|
D-|----------------------------------------------------------------------------|

Rhythm
e-------------------------------------------------------------------|
B-------------------------------------------------------------------|
G-------------------------------------------------------------------|
D-0-00-00-2-22-22-4-44-44-4-4-4-4-0-00-00-2-22-22--44-444-444-4444--|
A-0-00-00-2-22-22-4-44-44-4-4-4-4-0-00-00-2-22-22--44-444-444-4444--|
D-0-00-00-2-22-22-4-44-44-4-4-4-4-0-00-00-2-22-22--44-444-444-4444--|

Lead
e----------------------------------------------------------------------------|
B-----------14-14----------12-12-----14-14-----15-15-----14-14---------------|
G------14-14----------13-13-----13-13-----14-14-----14-14-----14-14-16-16-14-|
D-12-12----------14-14-------------------------------------------------------|
A----------------------------------------------------------------------------|
D----------------------------------------------------------------------------|

Bridge

Rhythm
e-|------------------------------------------------------------------|
B-|------------------------------------------------------------------|
G-|------------------------------------------------------------------|
D-|-0----------------------------------------------------------------|
A-|-0-----------------------------------------------4444444422222222-|
D-|-0-----------------------------------------------4444444422222222-|
                                                    ................
Lead
e-|------------------------------------------------------------------|
B-|------------------------------------------------------------------|
G-|-----6-------6-------6-------6-------6-------6--------------------|
D-|-------7------7-7------7------7-7------7------7-79----------------|
A-|---0-------0-------0-------0-------0-------0----------------------|
D-|------------------------------------------------------------------|

Rhythm
e--------------------------------------------------------------------|
B--------------------------------------------------------------------|
G--------------------------------------------------------------------|
D---00-000-000-0000-44-444-444-4444-00-000-000-0000-44-444-422-222-2-|
A---00-000-000-0000-44-444-444-4444-00-000-000-0000-44-444-422-222-2-|
D---00-000-000-0000-44-444-444-4444-00-000-000-0000-44-444-422-222-2-|
                ..              ..              ..
Lead
e----------------------------------------------------------------------------------|
B-----------14-14---------------14-14---------------14-14---------------14-14------|
G------14-14-----14-14-----14-14-----14-14-----14-14-----14-14-----14-14-----14-14-|
D-12-12---------------12-12---------------16-16---------------16-16----------------|
A----------------------------------------------------------------------------------|
D----------------------------------------------------------------------------------|

e----------------------------------------------------------------------------------|
B-----------14-14---------------14-14---------------14-14---------------12-12------|
G------14-14-----14-14-----14-14-----14-14-----14-14-----14-14-----13-13-----13-13-|
D-12-12---------------12-12---------------16-16---------------14-14----------------|
A----------------------------------------------------------------------------------|
D----------------------------------------------------------------------------------|

Rhythm
e--------------------------------------------------------------------|
B--------------------------------------------------------------------|
G--------------------------------------------------------------------|
D---00-000-000-0000-44-444-444-4444-00-000-000-0000-777-777-777-14\--|
A---00-000-000-0000-44-444-444-4444-00-000-000-0000-777-777-777-14\--|
D---00-000-000-0000-44-444-444-4444-00-000-000-0000-777-777-777-14\--|
                ..              ..              ..
Lead
e-----------------------------------------------------------------------------|
B-10-10---10-10---10-10-12-12-10-10-9-9-10-10---10-10---10-10-12-12-10-10-9-9-|
G-9--9-9-9-----9-9---------------------------9-9-----9-9----------------------|
D-----------------------------------------------------------------------------|
A-----------------------------------------------------------------------------|
D-----------------------------------------------------------------------------|

e--------------------------------------------------------------------------|
B-10-10---10-10---10-10-12-12-10-10-9-9-10--10--10--10--10--10-12-10-9-----|
G-9--9-9-9-----9-9----------------------9---9---9---9---9---9---------11-9-|
D--------------------------------------------------------------------------|
A--------------------------------------------------------------------------|
D--------------------------------------------------------------------------|

Chorus

Rhythm
e--|-----------------------------------------------------------------|
B--|-----------------------------------------------------------------|
G--|-----------------------------------------------------------------|
D-0|-00-00-2-22-22-4-44-44-4-4-4-4-0-00-00-2-22-22--44-444-444-4444--|
A-0|-00-00-2-22-22-4-44-44-4-4-4-4-0-00-00-2-22-22--44-444-444-4444--|
D-0|-00-00-2-22-22-4-44-44-4-4-4-4-0-00-00-2-22-22--44-444-444-4444--|

Lead
e-|----------------------------------------------------------------------------|
B-|----------14-14----------12-12---------------14-14---------------14-14------|
G-|-----14-14----------13-13-----13-13-----14-14-----14-14-----14-14-----14-14-|
D-|12-12----------14-14---------------16-16---------------12-12----------------|
A-|----------------------------------------------------------------------------|
D-|----------------------------------------------------------------------------|

Rhythm
e-------------------------------------------------------------------|
B-------------------------------------------------------------------|
G-------------------------------------------------------------------|
D-0-00-00-2-22-22-4-44-44-4-4-4-4-0-00-00-2-22-22--44-444-444-4444--|
A-0-00-00-2-22-22-4-44-44-4-4-4-4-0-00-00-2-22-22--44-444-444-4444--|
D-0-00-00-2-22-22-4-44-44-4-4-4-4-0-00-00-2-22-22--44-444-444-4444--|

Lead
e----------------------------------------------------------------------------|
B-----------14-14----------12-12-----14-14-----15-15-----14-14---------------|
G------14-14----------13-13-----13-13-----14-14-----14-14-----14-14-16-16-14-|
D-12-12----------14-14-------------------------------------------------------|
A----------------------------------------------------------------------------|
D----------------------------------------------------------------------------|

Rhythm
e--|-----------------------------------------------------------------|
B--|-----------------------------------------------------------------|
G--|-----------------------------------------------------------------|
D-0|-00-00-2-22-22-4-44-44-4-4-4-4-0-00-00-2-22-22--44-444-444-4444--|
A-0|-00-00-2-22-22-4-44-44-4-4-4-4-0-00-00-2-22-22--44-444-444-4444--|
D-0|-00-00-2-22-22-4-44-44-4-4-4-4-0-00-00-2-22-22--44-444-444-4444--|

Lead
e-|----------------------------------------------------------------------------|
B-|----------14-14----------12-12---------------14-14---------------14-14------|
G-|-----14-14----------13-13-----13-13-----14-14-----14-14-----14-14-----14-14-|
D-|12-12----------14-14---------------16-16---------------12-12----------------|
A-|----------------------------------------------------------------------------|
D-|----------------------------------------------------------------------------|

Rhythm
e-------------------------------------------------------------------|
B-------------------------------------------------------------------|
G-------------------------------------------------------------------|
D-0-00-00-2-22-22-4-44-44-4-4-4-4-0-00-00-2-22-22--44-444-444-4444--|
A-0-00-00-2-22-22-4-44-44-4-4-4-4-0-00-00-2-22-22--44-444-444-4444--|
D-0-00-00-2-22-22-4-44-44-4-4-4-4-0-00-00-2-22-22--44-444-444-4444--|

Lead
e----------------------------------------------------------------------------|
B-----------14-14----------12-12-----14-14-----15-15-----14-14---------------|
G------14-14----------13-13-----13-13-----14-14-----14-14-----14-14-16-16-14-|
D-12-12----------14-14-------------------------------------------------------|
A----------------------------------------------------------------------------|
D----------------------------------------------------------------------------|

Ending

e-|----------------------------------------------------------|Hold guitar
B-|----------------------------------------------------------|up to your
G-|----------------------------------------------------------|amp for
D-|-44------44------44------4440-----------------------------|feedback
A-|-44------44------44------4440-----------------------------|during the
D-|-44(5)(5)44(5)(5)44(5)(5)4440-----------------------------|last note





Comments


Popular A Change Of Pace tabs & chords
Every Second Bass Tabs
Queen Of Hearts Bass Tabs
Weekend Warriors 1 Bass Tabs
Chippie Tabs
Every Second Tabs
Prepare The Masses Tabs
Prepare The Masses Intro Tabs
Thin Red Line 1 Tabs
Weekend Warriors 3 Tabs
Shoot From The Hip Ukulele


Song lyrics



↑ Back to top | Tablatures and chords are parodies/interpretations of the original songs. You may use it for private study, scholarship, research or language learning purposes only
© 2014 AZChords.com Contact us | Privacy policy | DMCA | Add/correct tabs | Request tabs | Top 50 tabs