» » »

Goodbye For Now Tabs (ver.1)

Artists:  A B C D E F G H I J K L M N O P Q R S T U V W X Y Z # 

Goodbye For Now Tabs (ver.1)

A Change Of Pace
Rating:
5/5 (3 votes)

Hard to play? Try these video lessons and learn fast.
                Alright here you go people.. didn't really provide the strumming so just listen to the
song.. and im not exactly sure what guitar 1 does for the verses or the outro so if
anyone can help me out there. thanks.


          A Change Of Pace - Goodbye For Now
			Intro (G1)
e :------------------------------------------------------|
B :------------------------------------------------------|
G :----9-7----9--------------12—10-9h10p9----------------|
D :-10-----10---12—x7---------------------10~------------|
A :------------------------------------------------------|
E :------------------------------------------------------|
			Intro (G2)
e :------------------------------------------------------|
B :---------------------------------------End On---------|
G :------------------------------------------------------|
D :-10101010--7777--5555-3333----3~---------10~----------|
A :-10101010--7777--5555-3333-x2-3~---------10~----------|
E :-10101010--7777--5555—3333----3~---------10~----------|
			Verse 1 (G2)
e :------------------------------------------------------|
B :------------------------------------------------------|
G :------------------------------------------------------|
D :-10~------------10~-----------------------------------|
A :-10~------------10~-----------------------------------|
E :-10~------------10~-----------------------------------|
			Chorus 1 (G1)
e :------------------------------------------------------|
B :------------------------------------------------------|
G :----9-7----9--------------12—10-9h10p9----------------|
D :-10-----10---12—x7---------------------10~------------|
A :------------------------------------------------------|
E :------------------------------------------------------|
			Chorus 1 (G2)
e :------------------------------------------------------|
B :---------------------------------------End On---------|
G :------------------------------------------------------|
D :-10101010--7777--5555-3333----3~---------10~----------|
A :-10101010--7777--5555-3333-x2-3~---------10~----------|
E :-10101010--7777--5555—3333----3~---------10~----------|
			Verse 1 (G2)
e :------------------------------------------------------|
B :------------------------------------------------------|
G :------------------------------------------------------|
D :-10~------------10~-----------------------------------|
A :-10~------------10~-----------------------------------|
E :-10~------------10~-----------------------------------|
			Chorus 2 (G1)
e :------------------------------------------------------|
B :------------------------------------------------------|
G :----9-7----9--------------12—10-9h10p9----------------|
D :-10-----10---12—x7---------------------10~------------|
A :------------------------------------------------------|
E :------------------------------------------------------|
			Chorus 2 (G2)
e :------------------------------------------------------|
B :------------------------------------------------------|
G :------------------------------------------------------|
D :-10101010--7777--5555-3333----------------------------|
A :-10101010--7777--5555-3333-x2-------------------------|
E :-10101010--7777--5555—3333----------------------------|
			Bridge 1 (G1) *all P.M
  Play this part two times but the second time you only go to the third one and end with |G-12~|.
e :------------------------------------------------------|
B :------------------------------------------------------|
G :---------12---------------12--------------------------|
D :-7-7-9-7----10-9-10—7-7-9----10-9-10------------------|
A :------------------------------------------------------|
E :------------------------------------------------------|

e :------------------------------------------------------|
B :------------------------------------------------------|
G :---------10---------------10--------------------------|
D :-7-7-9-7----10-9-10-7-7-9----10-9-10------------------|
A :------------------------------------------------------|
E :------------------------------------------------------|

e :------------------------------------------------------|
B :------------------------------------------------------|
G :---------9---------------9----------------------------|*******
D :-7-7-9-7---10-9-10-7-7-9---10-9-10--------------------|
A :------------------------------------------------------|
E :------------------------------------------------------|

e :------------------------------------------------------|
B :------------------------------------------------------|
G :---------7---------------7-----------------------(12)-|
D :-7-7-9-7---10-9-10-7-7-9---10-9-10-7—-----------------|
A :------------------------------------------------------|
E :------------------------------------------------------|
			Bridge 1 (G2)
e :------------------------------------------------------|
B :------------------------------------------------------|
G :------------------------------------------------------|
D :-7~--10~--5~--3~--------------------3333--------------|
A :-7~--10~--5~--3~-x2-----------------3333-x2-----------|
E :-7~--10~--5~--3~--------------------3333--------------|
			Chorus 3 (G1)
e :------------------------------------------------------|
B :------------------------------------------------------|
G :----9-7----9--------------12—10-9h10p9----------------|
D :-10-----10---12—x's--------------------10~------------|
A :------------------------------------------------------|
E :------------------------------------------------------|
			Chorus 3 (G2)
e :------------------------------------------------------|
B :------------------------------------------------------|
G :------------------------------------------------------|
D :-10101010--7777--5555--3333---------------------------|
A :-10101010--7777--5555--3333-x2------------------------|
E :-10101010--7777--5555—-3333---------------------------|
			Outro (G2)
e :------------------------------------------------------|
B :------------------------------------------------------|
G :------------------------------------------------------|
D :--101010x-333x-777x-555x--101010--333--777--555—-10~--|
A :--101010x-333x-777x-555x--101010--333--777--555—-10~--|
E :--101010x-333x-777x-555x--101010--333--777--555—-10~--|
            
Hard to play? Try these video lessons and learn fast. | Correct




comments powered by Disqus
↑ Back to top | Tablatures and chords are parodies/interpretations of the original songs. You may use it for private study, scholarship, research or language learning purposes only