» » »

A Change Of Pace, Every Second Tabs (ver.1)

Artists:  A B C D E F G H I J K L M N O P Q R S T U V W X Y Z # 

Every Second Tabs (ver.1)

A Change Of Pace Tabs
 Rating:
3.1/5 (7 votes)
Every Second lessons Tabs too difficult? Try these video lessons and learn fast
1
                

e--------------------------------------------------------------------|
b--------------------------------------------------------------------|
g----------------------------------------------55555555555555--------|
d-55555555555555-00000000000000-22222222222222-55555555555555--------|
a-55555555555555-00000000000000-22222222222222-33333333333333--------|    2x
d-55555555555555-00000000000000-22222222222222-----------------------|

e
b
g
d-5---------------------------------------5-|
a-5---------------------------------------5-|
d-5---------------------------------------5-|
   the last drop in the bottle fell out
                     VERSE
e------------------------------------------------------------|
b------------------------------------------------------------|
g---------------------------------------------55555555555555-|
d-5555555555555-00000000000000-22222220000000-55555555555555-|
a-5555555555555-00000000000000-22222220000000-33333333333333-|
d-5555555555555-00000000000000-22222220000000----------------|
  ............. .............. ..............
                  PRE-CHORU 

                               |triplets|
                                 |   |       |   |
e-----------------------------------------------------|
b-----------------------------------------------------|
g-------------------------------555-555-----555-555---|
d-22222222222222-55555555555555-555-555--0--555-555---|
a-22222222222222-55555555555555-333-333--0--333-333---|
d-22222222222222-55555555555555----------0------------|
                  CHORUS
e-------------------------------------------------------------|
b-------------------------------------------------------------|
g----------------------------------------------55555555555555-|
d-55555555555555-00000000000000-22222222222222-55555555555555-|
a-55555555555555-00000000000000-22222222222222-33333333333333-|
d-55555555555555-00000000000000-22222222222222----------------|
   every second   everymoment this cant last for-ever

e-
b-
g-
d-5-------5-|
a-5-------5-|
d-5-------5-|

e-------------------------------------------------------------|
b-------------------------------------------------------------|
g----------------------------------------------55555555555555-|
d-55555555555555-00000000000000-22222220000000-55555555555555-|
a-55555555555555-00000000000000-22222220000000-33333333333333-|
d-55555555555555-00000000000000-22222220000000----------------|
  .............. .............. ..............

e----------------------------------------------------|
b----------------------------------------------------|
g-------------------------------555-555-----555-555--|
d-22222222222222-55555555555555-555-555--0--555-555--|
a-22222222222222-55555555555555-333-333--0--333-333--|
d-22222222222222-55555555555555----------0-----------|

e------------------------------------------------------------------|
b------------------------------------------------------------------|
g----------------------------------------------55555555555555------|
d-55555555555555-00000000000000-22222222222222-55555555555555------|     2x
a-55555555555555-00000000000000-22222222222222-33333333333333------|
d-55555555555555-00000000000000-22222222222222---------------------|

e-------------------------------------------------------------|
b-------------------------------------------------------------|
g----------------------------------------------55555555555555-|
d-55555555555555-00000000000000-22222220000000-55555555555555-|
a-55555555555555-00000000000000-22222220000000-33333333333333-|
d-55555555555555-00000000000000-22222220000000----------------|
  .............. .............. ..............

e-----------------------------------------------------------------|
b-----------------------------------------------------------------|
g----------------------------------------------55555555555555-----|
d-55555555555555-00000000000000-22222222222222-55555555555555-----|    4x
a-55555555555555-00000000000000-22222222222222-33333333333333-----|
d-55555555555555-00000000000000-22222222222222--------------------|


g-------------5-|
d-5---0---2---5-|
a-5---0---2---3-|
d-5---0---2-----|
            
Submit corrections

comments powered by Disqus
↑ Back to top | A Change Of Pace Tabs for Every Second. Lyrics for acoustic guitar and electric guitar. 1 Tablatures and chords are parodies/interpretations of the original songs. You may use it for private study, scholarship, research or language learning purposes only