» » »

A Change Of Pace, Every Second Bass tabs (ver.1)

Artists:  A B C D E F G H I J K L M N O P Q R S T U V W X Y Z # 

Every Second Bass tabs (ver.1)

A Change Of Pace Tabs
 Rating:
4/5 (4 votes)
Every Second lessons Tabs too difficult? Try these video lessons and learn fast
1
                -------------------------------------------------------------------------------
-------------------------------------------------------------------------------
Tuning: Drop D

Intro
G|-------------------------------------------------|   |-------|
D|-------------------------------------------------|   |-------|
A|-------------------------------------333333333333|   |-------|
D|-55555555555-00000000000-22222000000-------------|x2 |--0~---|

Verse
G|------------------------------------------------------------------|
D|------------------------------------------------------------------|
A|---------------------------------------------------333333333333333|
D|5555555555555555-0000000000000000-2222222200000000----------------|

Pre-Chorus "And all these tears and pain.."
G|-------------------------------------------------------|
D|-------------------------------------------------------|
A|--------------------------------3-33-33333-3-3333333-3-|
D|-022222222222222-55555555555555------------------------|

Chorus "I'll remember every second.."
G|-------------------------------------------------|    |-------|
D|-------------------------------------------------|    |-------|
A|-------------------------------------333333333333|    |-------|
D|-55555555555-00000000000-2222000000--------------| x2 |-5~----|

Verse x1
Pre-Chorus x1
Chorus x2 

Bridge "Don't worry.."
G|----------------------------------------------------------|
D|----------------------------------------------------------|
A|-------------3~----------------------------3333333333333--|
E|-5~--0~--2~------5555555-00000000-22220000----------------|

Chorus x3

Outro
G|-----------------|
D|-----------------|
A|-------------3~--|
E|-5~--0~--2~------|
            
Submit corrections

comments powered by Disqus
↑ Back to top | A Change Of Pace Bass for Every Second. Lyrics for acoustic guitar and electric guitar. 1 Tablatures and chords are parodies/interpretations of the original songs. You may use it for private study, scholarship, research or language learning purposes only