» » »

A Change Of Pace, Chippie Tabs (ver.1)

Artists:  A B C D E F G H I J K L M N O P Q R S T U V W X Y Z # 

Chippie Tabs (ver.1)

A Change Of Pace Tabs
 Rating:
3.8/5 (5 votes)
Chippie lessons Tabs too difficult? Try these video lessons and learn fast
                -------------------------------------------------------------------------------
-------------------------------------------------------------------------------


Tuning:Drop D (DADGBe)
Guitar 1: Rhythm 
Guitar 2: Lead

Verse


Guitar 1
e|---------------------------------------------------------------------------|
B|---------------------------------------------------------------------------|
G|--5--7--9--10--------------------------------------------------------------|
D|--3--7--7--8---------------------------------------------------------------|
A|--3--5--7--8---------------------------------------------------------------|
E|--3-----7--8---------------------------------------------------------------|

                                         X2
Guitar 2                                                                    
e|---------------------------------------------------------------------------|
B|---------------------------------------------------------------------------|
G|-5----7----9----10----9----10---5----7----9----11---9----17----------------|
D|-x----x----x----x-----x----x----x----x----x----x----x----x-----------------|
A|-3----5----7----8-----7----8----3----5----7----9----7----15----------------|
E|---------------------------------------------------------------------------|

Both Guitars
e|---------------------------------------------------------------------------|
B|---------------------------------------------------------------------------|
G|---------------------------------------------------------------------------|
D|--3---\----7---8-----------------------------------------------------------|
A|--3---\----7---8-----------------------------------------------------------|
E|--3---\----7---8-----------------------------------------------------------|

e|---------------------------------------------------------------------------|
B|---------------------------------------------------------------------------|
G|---------7--7--------------------------------------------------------------|
D|--3--3---7--7---7--7----8--------------------------------------------------|
A|--3--3---5--5---7--7----8--------------------------------------------------|
E|--3--3----------7--7----8--------------------------------------------------|
       pm     pm     pm   

X2
e|---------------------------------------------------------------------------|
B|---------------------------------------------------------------------------|
G|---------------7-7-7---7---------------------------------------------------|
D|--3-3-3--3-----7-7-7---7---7-7-7---7---8----(8-7-5-7)----------------------|
A|--3-3-3--3-----5-5-5---5---7-7-7---7---8-----------------------------------|
E|--3-3-3--3-----------------7-7-7---7---8-----------------------------------|
  pm pm pm     pm pm pm    pm pm pm              ( )first time only

Chorus
Both Guitars
e|---------------------------------------------------------------------------|
B|---------------------------------------------------------------------------|
G|---7-----5-7---------------------------------------------------------------|
D|---7-7-3-5-7-7-3-----------------------------------------------------------|
A|---5-7-3-3-5-7-3-----------------------------------------------------------|
E|-----7-3-----7-3-----------------------------------------------------------|

Verse
Chorus

Bridge
Guitar 1
e|---------------------------------------------------------------------------|
B|---------------------------------------------------------------------------|
G|-------7-------------------------------------------------------------------|
D|-3--3--7-7--8--------------------------------------------------------------|
A|-3--3--5-7--8--------------------------------------------------------------|
E|-3--3----7--8--------------------------------------------------------------|
  (     X2      )
Guitar 2
e|---------------------------------------------------------------------------|
B|---------------------------------------------------------------------------|
G|--7--10--5--14--12--17--15--14--7--10--5--14--12--17--15--14---------------|
D|--x--x---x--x---x---x---x---x---x--x---x--x---x---x---x---x----------------|
A|--5--8---3--12--10--15--13--12--5--8---3--12--10--15--13--12---------------|
E|---------------------------------------------------------------------------|

Both Guitars
e|---------------------------------------------------------------------------|
B|---------------------------------------------------------------------------|
G|--7--------5-------7-------------------------------------------------------|
D|--7--7--3--5-------7--7--3-------------------------------------------------|
A|--5--7--3--3-------5--7--3-------------------------------------------------|
E|-----7--3-------------7--3-------------------------------------------------|
   (    X5     )


/  slide up
| \  slide down
| h  hammer-on
| p  pull-off
| ~  vibrato
| +  harmonic
| x  Mute note
===============================================================================
            
Submit corrections

comments powered by Disqus
↑ Back to top | A Change Of Pace Tabs for Chippie. Lyrics for acoustic guitar and electric guitar. Tablatures and chords are parodies/interpretations of the original songs. You may use it for private study, scholarship, research or language learning purposes only