» » »

Chippie Bass tabs (ver.1)

Artists:  A B C D E F G H I J K L M N O P Q R S T U V W X Y Z # 

Chippie Bass tabs (ver.1)

A Change Of Pace
Rating:
0/5 (0 votes)

Hard to play? Try these video lessons and learn fast.
                -------------------------------------------------------------------------------
-------------------------------------------------------------------------------
Tuning: Drop D

Intro
G|-------------------------------------|    |-------|
D|-------------------------------------|    |-------|
A|----------55555555-00000000-11111111-|    |-------|
D|-33333333----------------------------| x2 |---3~--|

Verse
G|--------------------------------------------------------------|
D|--------------------------------------------------------------|
A|-00000000-1111111-----------55555-5-5555-0000-0-000-11-111111-|
D|------------------3333-3333-----------------------------------|

Pre-Chorus
G|--------------------------|
D|--------------------------|
A|-------555-5--------------|
D|-333-3-------777-7-888-8--| x2

Chorus
G|-------------------------------------|------------------------|
D|-------------------------------------|------------------------|
A|55555555-33333333----------11111111--|-5555555-33333333-------|
D|------------------33333333-----------|------------------333-3-|

Intro x2
Verse 
G|-------------------------------------------------------|
D|-------------------------------------------------------|
A|-00000000-1111111-----------55555-5-5555-0000-0-000-1~-|
D|------------------3333-3333----------------------------|

Pre-Chorus x2
Chorus x1

bridge
G|--------------------------------------|
D|--------------------------------------|
A|----------55555555-00000000-11111111--|
D|-33333333-----------------------------|x2

Outro
G|-------------------------------------|
D|-------------------------------------|
A|-55555555-11111111----------33333333-|
D|-------------------33333333----------| x4

Chorus x1
            
Hard to play? Try these video lessons and learn fast. | Correct




comments powered by Disqus
↑ Back to top | Tablatures and chords are parodies/interpretations of the original songs. You may use it for private study, scholarship, research or language learning purposes only