» » »

Ace Troubleshooter, Yesterday Tabs (ver.1)

Artists:  A B C D E F G H I J K L M N O P Q R S T U V W X Y Z # 

Yesterday Tabs (ver.1)

Ace Troubleshooter Tabs
Rating:
0/5 (0 votes)
Yesterday lessons Tabs too difficult? Try these video lessons and learn fast
                Ace Troubleshooter

Enjoy :)


e[-----7-------7-------7-------7h8p7-----7---7-7---7-9-----]
B[---8---8---8---8---8---7---8---------8-8---8-8---8-8-----]
G[-9-------8-------7-------6---------5-----5-----5---x-----]
D[---------------------------------------------------5-----]
A[---------------------------------------------------------]
E[---------------------------------------------------------]

G F#/G E B C C7

Verse 1:
G F#m E
B C
G
F#m
E B C
C7 G F#m E B C C7

Chorus:
G F#m
E B C
C G
F#m
E B
C C7 G
G D
E* B 
C
C7 G F#m E B C C7

Verse 2:
G F#m E
B C
C G
F#m E
B C 
C7


ENDING:
e[---------------------------------------------3~----------]
B[---------------------------------------------3~----------]
G[-------12---------12----------12----55555555-4~----------]
D[----12----12---12----12----12----12-55555555-5~----------]
A[-10----------9----------------------33333333-5~----------]
E[------------------------12-------------------3~----------]
            

comments powered by Disqus
↑ Back to top | Ace Troubleshooter Tabs for Yesterday. Lyrics for acoustic guitar and electric guitar. Tablatures and chords are parodies/interpretations of the original songs. You may use it for private study, scholarship, research or language learning purposes only