» » »

Ac/Dc, What Do You Do For Money Honey Tabs (ver.1)

Artists:  A B C D E F G H I J K L M N O P Q R S T U V W X Y Z # 

What Do You Do For Money Honey Tabs (ver.1)

Ac/Dc Tabs
 Rating:
4/5 (4 votes)
What Do You Do For Money Honey lessons Tabs too difficult? Try these video lessons and learn fast
1
                Tuning: standard (E A D G B e)


Intro:
|------------------------------------|------------------------------------|
|------------------------------------|------------------------------------|
|----1----4--------------7-----------|----1----4--------------7-----------|
|----2----5----------5---7--7---7----|----2----5---------5----7--7---7----|
|----2----5-----------------7---7----|----2----5-----------------7---7----|
|----0----3--------------------------|----0----3--------------------------|

|------------------------------------|------------------------------------|
|------------------------------------|------------------------------------|
|----1----4--------------7-----------|----1----4--------------------------|
|----2----5----------5---7--7---7----|----2----5--------------------------|
|----2----5-----------------7---7----|----2----5--------------------------|
|----0----3--------------------------|----0----3--------------------------|


Verse:
|-------------------------------------------------------------------------|
|-------------------------------------------------------------------------|
|-------------------------------------------------------------------------|
|-----9----7--6---7---6---5-----7----5--6-----12--7-------6---------------|
|-----7----5--4---5---4---7-----9----7--4-----10--5-------4---------------|
|-------------------------------------------------------------------------|

|-------------------------------------------------------------------------|
|-------------------------------------------------------------------------|
|-------------------------------------------------------------------------|
|-----9----7--6---7---6---5-----7----5--6-----12--7-------6---------------|
|-----7----5--4---5---4---7-----9----7--4-----10--5-------4---------------|
|-------------------------------------------------------------------------|

|-------------------------------------------------------------------------|
|-------------------------------------------------------------------------|
|-------------------------------------------------------------------------|
|-----9----7--6---7---6---5-----7----5--6-----5---------------------------|
|-----7----5--4---5---4---7-----9----7--4-----5---------------------------|
|-------------------------------------------------------------------------|
                                              (I'm not really sure about this G)
|-------------------------------------------------------------------------|
|-------------------------------------------------------------------------|
|-------------------------------------------------------------------------|
|-----9----7--6---7---6---5-----7----5--6-----5---------------------------|
|-----7----5--4---5---4---7-----9----7--4-----5---------------------------|
|-------------------------------------------------------------------------|

Pre-Chorus:
|-------------------------------------------------------------------------|
|-------------------------------------------------------------------------|
|-------------------------------------------------------------------------|
|-----9---7----6---7-----7-7-7-7-7-7-7-7-7-7-7-7--------------------------|
|-----7---5----4---5-----5-5-5-5-5-5-5-5-5-5-5-5-(don't know how often)---|
|-------------------------------------------------------------------------|

Chorus:
|------------------------------------|------------------------------------|
|------------------------------------|------------------------------------|
|----1----4--------------7-----------|----1----4--------------7-----------|
|----2----5----------5---7--7---7----|----2----5---------5----7--7---7----|
|----2----5-----------------7---7----|----2----5-----------------7---7----|
|----0----3--------------------------|----0----3--------------------------|
    ho -  ney          ...               mo -  ney
|------------------------------------|------------------------------------|
|------------------------------------|------------------------------------|
|----1----4--------------7-----------|----1----4--------------------------|
|----2----5----------5---7--7---7----|----2----5-----7--6--5--------------|
|----2----5-----------------7---7----|----2----5-----5--4--5--------------|
|----0----3--------------------------|----0----3--------------------------|
    ho -  ney          ...               mo -  ney

Bridge:
 Rhythym
|-------------------------------------------------------------------------|
|-------------------------------------------------------------------------|
|-------------------------------------------------------------------------|
|-----9----7--6---7---6---5-----7----5--6-----12--7-------6---------------|
|-----7----5--4---5---4---7-----9----7--4-----10--5-------4---------------|
|-------------------------------------------------------------------------|

|-------------------------------------------------------------------------|
|-------------------------------------------------------------------------|
|-------------------------------------------------------------------------|
|-----9----7--6---7---6---5-----7----5--6-----12--7-------6---------------|
|-----7----5--4---5---4---7-----9----7--4-----10--5-------4---------------|
|-------------------------------------------------------------------------|
|
|Lead
|-------------------------------------------------------------------------|
|-------------------------------------------------------------------------|
|---4---2---1---0--1--------4---2---1---0--1------------------------------|
|-------------------------------------------------------------------------|
|-------------------------------------------------------------------------|
|-------------------------------------------------------------------------|

After 2nd chorus:
|-------------------------------------------------------------------------|
|-------------------------------------------------------------------------|
|-------------------------------------------------------------------------|
|-------------------------------------------------------------------------|
|----2------2------2------2-----------------------------------------------|
|----0------0------0------0-----------------------------------------------|


Solo:
 Rhythym
|-------------------------------------------------------------------------|
|-------------------------------------------------------------------------|
|-------------------------------------------------------------------------|
|---9---7---6---5-----9---7---6---5-----9---7---6---5-----9---7---6---5---|
|---7---5---4---5-----7---5---4---5-----7---5---4---5-----7---5---4---5---|
|-------------------------------------------------------------------------|
|
|-------------------------------------------------------------------------|
|-------------------------------------------------------------------------|
|-------------------------------------------------------------------------|
|---5--------7---6---5--------7---6---5-----------------------------------|
|---5--------5---4---5--------5---4---5-----------------------------------|
|---3---------------------------------------------------------------------|
|
|-------------------------------------------------------------------------|
|-------------------------------------------------------------------------|
|-------------------------------------------------------------------------|
|---9---7---6---5-----9---7---6---5-----9---7---6---5-----9---7---6---5---|
|---7---5---4---5-----7---5---4---5-----7---5---4---5-----7---5---4---5---|
|-------------------------------------------------------------------------|
|
|-------------------------------------------------------------------------|
|-------------------------------------------------------------------------|
|-------------------------------------------------------------------------|
|---9-9-9-9-9-9-9---------------------------------------------------------|
|---7-7-7-7-7-7-7-(repeat several times)----------------------------------|
|-------------------------------------------------------------------------|

 Lead
|-------------------------------------------------------------------------|
|---9----7h9p7---5h7p5---3h5p3---1h3b----1-3-1---1-3-1----1-3-1-----------|
|-------------------------------------------------------------------------|
|-------------------------------------------------------------------------|
|-------------------------------------------------------------------------|
|-------------------------------------------------------------------------|

|-------------------------------------------------------------------------|
|--1--3-------------------------------------------------------------------|
|--------3--1-------------------------2-4-5p4p2----3-5-6-5-3--------------|
|--------------3--1------2-4-5p4p2----------------------------------------|
|--------------------3b---------------------------------------------------|
|-------------------------------------------------------------------------|

|-------------------------------------------------------------------------|
|-----------------55555555-44444444-33333333------------------------------|
|---4-6-7-6-4-----------------------------------55555555-44444444-33333333|
|-------------------------------------------------------------------------|
|-------------------------------------------------------------------------|
|-------------------------------------------------------------------------|
                  (play very fast or just bend a lot here)

|-----12---12--13-14-15--17-15-14-12----9---12p9-12p9-12p9p7--------------|
|-------------------------------------------------------------------------|
|-------------------------------------------------------------------------|
|-------------------------------------------------------------------------|
|-------------------------------------------------------------------------|
|-------------------------------------------------------------------------|


|----9-12-15-12-9-7-----9--17-15--15-12-15-----15-17-15-17-15-17s19-------|
|-------------------------------------------------------------------------|
|-------------------------------------------------------------------------|
|-------------------------------------------------------------------------|
|-------------------------------------------------------------------------|
|-------------------------------------------------------------------------|

|--17-15-12--------17-20--17-20-20-20-20-20-20-20-20sd--------------------|
|-------------------------------------------------------------------------|
|-------------------------------------------------------------------------|
|-------------------------------------------------------------------------|
|-------------------------------------------------------------------------|
|-------------------------------------------------------------------------|

p=pull off
h=hammer on
s=slide
b=bend
sd=slide down
            
Submit corrections

comments powered by Disqus
↑ Back to top | Ac/Dc Tabs for What Do You Do For Money Honey. Lyrics for acoustic guitar and electric guitar. 1 Tablatures and chords are parodies/interpretations of the original songs. You may use it for private study, scholarship, research or language learning purposes only