» » »

Ac/Dc, Stiff Upper Lip Tabs (ver.3)

Artists:  A B C D E F G H I J K L M N O P Q R S T U V W X Y Z # 

Stiff Upper Lip Tabs (ver.3)

Ac/Dc Tabs
 Rating:
4/5 (4 votes)
Stiff Upper Lip lessons Tabs too difficult? Try these video lessons and learn fast
                m=muted note, b=bend, h=hammer-on, r=release, x=muted click, \=slide 
down, /=slide up, v=vibrato

E|--------------------------------------------------|      
B|--8^--10--8-----10--7--5------------7--5----------|
G|-------------9------7--5--6h--------7--5----------|
D|--------------------------------------------------|
A|--0---0---0--0---0--0--0--0---0--0--0--0----------|
E|--------------------------------------------------|x6


Solo
E|----------------------------------------------------------------------8b--5-x|
B|--17b-17b--------------------x-x-5-5b\\---------5----5-7b-5-7-5b------7b--5-x|
G|--17b-17b--------------------x-x-5-5b\\\--------5----5-7b-5-7-5b-------------|
D|---------19~~-21\\\\\\\\\----------------7-x-7~---7m-------------7m----------|
A|--------------21\\\\\\\\\\---------------------------------------------------|
E|-----------------------------------------------------------------------------|

E|5-8b-5-x-8b-5--------------------------------------------------9-10-11-12-9--|
B|5-7b-5-x-7b-5-8-7-5--------------------10~~----12-13r12-10~~-10------------10|
G|--------------7-7-5h6-----------------------11-------------------------------|
D|---------------------7m-x-7~--10-12-14---------------------------------------|
A|------------------------7-------------0m-------------------------------------|
E|-----------------------------------------------------------------------------|

E|------------------------//8--8-8-8-8-8-8-8////17--18b-18b-18b----------8b-5--|
B|10~~-10r8---8--8-8\\\--///7--7-7-7-7-7-7-7////17--17b-17b-17b----------7b-5--|
G|---------9m-7--7-7\\\\-------------------------------------------------------|
D|--------------------------------------------------------------21\\\\\--------|
A|--------------------------------------------------------------21\\\\\\-------|
E|-----------------------------------------------------------------------------|

E|--8b--5-------------------------------------------------|
B|--7b--5-5-8-8-8-8-7-7~-7-7-7-7-7-7-7------5b----5-7-5~--|
G|----------7-7-7-7-7-7~-7-7-7-7-7-7-7------5b----5-7-5~--|
D|-------------------------------------7m-7----7m---------|
A|--------------------------------------------------------|
E|--------------------------------------------------------|
note that angus plays
E|----------------------------------------------------------20~~--|
B|----------------------------------------------------------------|
G|----------------------------------------3/////21----------------|
D|----5b-7~~--(then a few seconds later)--3/////21\\\\\\0--x------|
A|---x------------------------------------3/////21\\\\\\0--x------|
E|--x----------------------------------------------\\\\\0--x------|


E|-------------------|
B|--888888888888-----|
G|--------------9~~--|
D|-------------------|
A|-------------------|
E|-------------------|

Outro                   (turn to bass)
E|------5-----------5---5-8--|
B|------5-8-5-------5-8-5-7--|
G|-----x--7-5h6----x---------|
D|----x--------7--x----------|
A|---x-----------x-----------|
E|--x-----------x------------|
            
Submit corrections

comments powered by Disqus
↑ Back to top | Ac/Dc Tabs for Stiff Upper Lip. Lyrics for acoustic guitar and electric guitar. Tablatures and chords are parodies/interpretations of the original songs. You may use it for private study, scholarship, research or language learning purposes only