» » »

Ac/Dc, Jailbreak Tabs (ver.1)

Artists:  A B C D E F G H I J K L M N O P Q R S T U V W X Y Z # 

Jailbreak Tabs (ver.1)

Ac/Dc Tabs
 Rating:
4/5 (4 votes)
Jailbreak lessons Tabs too difficult? Try these video lessons and learn fast
                Intro + verse:
E|-------------------|-----------------------|-----------------------|-----------------------|
B|-------------------|------------3----------|------------3----------|------------3----------|
G|-------------------|------------2----2-----|------------2----2-----|------------2----2-----|
D|----------------2--|----2-------0----2--2--|----2-------0----2--2--|----2-------0----2--2--|
A|----------------2--|----2------------0--2--|----2------------0--2--|----2------------0--2--|
E|----------------0--|----0----0----------0--|----0----0----------0--|----0----0----------0--|

 to bridge:              all in the name...
|----------------------|-------------------|----------------------|-------------------|
|------------3---------|-------------------|----3----3----3----3--|-------------------|
|------------2----2----|--2----------------|----2----2----2----2--|--2----------------|
|----2-------0----2----|--2----------------|----4----4----4----4--|--2----------------|
|----2------------0----|--0----------------|----0----0----0----0--|--0----------------|
|----0----0------------|-------------------|----------------------|-------------------|

                       all in the name...
|----------------------|-------------------|----------------------|
|----3----3----3----3--|-------------------|----------------------|
|----2----2----2----2--|--4----------------|----1----1----1----1--|
|----4----4----4----4--|--4----------------|----2----2----2----2--|
|----0----0----0----0--|--2----------------|----2----2----2----2--|
|----------------------|-------------------|----0----0----0----0--|
                                 to chorus:
|-------------------|----------------------|
|-------------------|----3----3----3----3--|
|--4----------------|----2----2----2----2--|
|--4----------------|----0----0----0----0--|
|--2----------------|----------------------|
|-------------------|----------------------|

  jailbreak...                                                                                      2x
|-------------------------|------------------------|------------------------|-------------------------||
|-------------------------|------------------------|------------------------|-------------------------||
|*------------------------|------------------------|------------------------|------------------------*||
|*----------------7----7--|----------------7----7--|----------------7----7--|----------------7----7--*||
|---2----2-----2--5----4--|--2----2-----2--5----4--|--2----2-----2--5----4--|--2----2-----2--5----4---||
|---0----0--3b-0----------|--0----0--3b-0----------|--0----0--3b-0----------|--0----0--3b-0-----------||


  jailbreak...                                                                to verse:
|------------------------|------------------------|------------------------|-------------------|
|------------------------|------------------------|------------------------|-------------------|
|------------------------|------------------------|------------------------|-------------------|
|----------------7----7--|----------------7----7--|----------------7----7--|--2----------------|
|--2----2-----2--5----4--|--2----2-----2--5----4--|--2----2-----2--5----4--|--2----------------|
|--0----0--3b-0----------|--0----0--3b-0----------|--0----0--3b-0----------|--0----------------|
            
Submit corrections

comments powered by Disqus
↑ Back to top | Ac/Dc Tabs for Jailbreak. Lyrics for acoustic guitar and electric guitar. Tablatures and chords are parodies/interpretations of the original songs. You may use it for private study, scholarship, research or language learning purposes only