» » »

Ac/Dc, Big Gun Tabs (ver.2)

Artists:  A B C D E F G H I J K L M N O P Q R S T U V W X Y Z # 

Big Gun Tabs (ver.2)

Ac/Dc Tabs
Rating:
0/5 (0 votes)
Hard to play? Try these video lessons and learn fast.
                Intro:
E|----------3b-----------|---------------------|----------3b----------|
B|-----------------5--3--|----5----5------3\---|-----------------5----|
G|-----------------------|---------------------|----------------------|
D|--2--2-----------------|---------------------|--2--2----------------|
A|--2--2-----------------|---------------------|--2--2----------------|
E|--0--0-----------------|---------------------|--0--0----------------|

|----------------------|----------3b-----------|---------------------|
|--5----3\-------------|-----------------5--3--|----5----5------3\---|
|----------------------|-----------------------|---------------------|
|----------------------|--2--2-----------------|---------------------|
|--------------5-------|--2--2-----------------|---------------------|
|-----------------5----|--0--0-----------------|---------------------|

                                               verse theme:
|----------3b----------|----------------------|------------------------|
|-----------------5----|--5----3\-------------|------------------------|
|----------------------|----------------------|------------------------|
|--2--2----------------|----------------------|------------------------|
|--2--2----------------|--------------5-------|-----2--5-------4-------|
|--0--0----------------|-----------------5----|--0----------5-------3--|
                                                   chord change up:
|------------------------|------------------------|------------------------|
|------------------------|------------------------|------------------------|
|------------------------|------------------------|------------------------|
|------------------------|------------------------|------------------------|
|--2----0--4-------------|-----2--5-------4-------|--2----0--4-------------|
|---------------3--5--3--|--0----------5-------3--|---------------3--5--3--|

|------------------------|------------------------|------------------------|
|------------------------|------------------------|------------------------|
|------------------------|------------------------|------------------------|
|-----2--5-------4-------|--2----0--4-------------|-----2--5-------4-------|
|--0----------5-------3--|---------------3--5--3--|--0----------5-------3--|
|------------------------|------------------------|------------------------|
                          chord change down:
|------------------------|------------------------|------------------------|
|------------------------|------------------------|------------------------|
|------------------------|------------------------|------------------------|
|--2----0--4-------------|------------------------|------------------------|
|---------------3--5--3--|-----2--5-------4-------|--2----0--4-------------|
|------------------------|--0----------5-------3--|---------------3--5--3--|

|------------------------|------------------------|-----------------------|
|------------------------|------------------------|-----------------------|
|------------------------|------------------------|--4----4--2----2--4----|
|------------------------|------------------------|--4----4--2----2--4----|
|-----2--5-------4-------|--2----0--4-------------|--2----2--2----2--2----|
|--0----------5-------3--|---------------3--5--3--|-----------------------|

|-----------------------|---------------------|---------------------|
|-----------------------|----------------3----|---------------------|
|----2----2--2--4--4----|--2------0------2----|----2------2----2----|
|----2----2--2--4--4----|--2------0------0----|----2------2----2----|
|----2----2--2--2--2----|--0------------------|----0------0----0----|
|-----------------------|---------3-----------|---------------------|
 chorus:
|----------3b-----------|---------------------|----------3b----------|
|-----------------5--3--|----5----5------3\---|-----------------5----|
|-----------------------|---------------------|----------------------|
|--2--2-----------------|---------------------|--2--2----------------|
|--2--2-----------------|---------------------|--2--2----------------|
|--0--0-----------------|---------------------|--0--0----------------|

|----------------------|----------3b-----------|---------------------|
|--5----3\-------------|-----------------5--3--|----5----5------3\---|
|----------------------|-----------------------|---------------------|
|----------------------|--2--2-----------------|---------------------|
|--------------5-------|--2--2-----------------|---------------------|
|-----------------5----|--0--0-----------------|---------------------|
                                                verse:
|-----------------------|----------------------|------------------------|
|-----------------------|----------------------|------------------------|
|-----------------------|----------------------|------------------------|
|----5--2---------------|----------------------|------------------------|
|------------5----------|----------------------|-----2--5-------4-------|
|-----------------5--3--|--5--3--0--0----------|--0----------5-------3--|

|------------------------|
|------------------------|
|------------------------|
|------------------------|
|--2----0--4-------------|
|---------------3--5--3--|
            

comments powered by Disqus
↑ Back to top | Ac/Dc Tabs for Big Gun. Lyrics for acoustic guitar and electric guitar. Tablatures and chords are parodies/interpretations of the original songs. You may use it for private study, scholarship, research or language learning purposes only