» » »

Acceptance, Take Cover Tabs (ver.1)

Artists:  A B C D E F G H I J K L M N O P Q R S T U V W X Y Z # 

Take Cover Tabs (ver.1)

Acceptance Tabs
Rating:
4/5 (5 votes)
Take Cover lessons Tabs too difficult? Try these video lessons and learn fast
                -------------------------------------------------------------------------------
-------------------------------------------------------------------------------

Tuning:Half A step down (Eb,Ab,Db,Gb,Bb,eb) Or standard tuning sounds ok too

Intro(From piano to guitar)
e|------------------------------------------------------------------|
B|------------------------------------------------------------------|
G||-------9|----|------9---12----9---|------------------------------|X3
D||---10---|-X4-|---10---10---10--10-|-X1---------------------------|
A||-8----8-|----|-0---0--------------|------------------------------|
E|------------------------------------------------------------------|

First Break
e|---------------------------------------------------------------------------|
B|---------------------------------------------------------------------------|
G|--5------------------------------------------------------------------------|
D|--5-x8-5-------------------------------------------------------------------|
A|--3----5-x8----------------------------------------------------------------|
E|-------3-------------------------------------------------------------------|

e|------------------------------------------------------------------|
B|------------------------------------------------------------------|
G||-------9|----|------9---12----9---|------------------------------|X2
D||---10---|-X4-|---10---10---10--10-|-X1---------------------------|
A||-8----8-|----|-0---0--------------|------------------------------|
E|------------------------------------------------------------------|
Second Brake
e|---------------------------------------------------------------------------|
B|---------------------------------------------------------------------------|
G|--5------------------------------------------------------------------------|
D|--5-x8-5-----8-------------------------------------------------------------|
A|--3----5-x8--8-x12---------------------------------------------------------|
E|-------3-----6-------------------------------------------------------------|
Chorus
e|---------------------------------------------------------------------------|
B|---------------------------------------------------------------------------|
G|---------------------------------------------------------------------------|
D|-23---75--23---775---------------------------------------------------------|X2
A|-23---75--23---775---------------------------------------------------------|
E|-01---53--01---553---------------------------------------------------------|
Third Brake
e|---------------------------------------------------------------------------|
B|---------------------------------------------------------------------------|
G|--9------------------------------------------------------------------------|
D|--x-x8---------------------------------------------------------------------|
A|--7------------------------------------------------------------------------|
E|---------------------------------------------------------------------------|

e|------------------------------------------------------------------|
B|------------------------------------------------------------------|
G||-------9|----|------9---12----9---|------------------------------|X1
D||---10---|-X4-|---10---10---10--10-|-X1---------------------------|
A||-8----8-|----|-0---0--------------|------------------------------|
E|------------------------------------------------------------------|

First Break
e|---------------------------------------------------------------------------|
B|---------------------------------------------------------------------------|
G|--5------------------------------------------------------------------------|
D|--5-x8-5-------------------------------------------------------------------|
A|--3----5-x8----------------------------------------------------------------|
E|-------3-------------------------------------------------------------------|

e|------------------------------------------------------------------|
B|------------------------------------------------------------------|
G||-------9|----|------9---12----9---|------------------------------|X1
D||---10---|-X4-|---10---10---10--10-|-X1---------------------------|
A||-8----8-|----|-0---0--------------|------------------------------|
E|------------------------------------------------------------------|

Second Brake
e|---------------------------------------------------------------------------|
B|---------------------------------------------------------------------------|
G|--5------------------------------------------------------------------------|
D|--5-x8-5-----8-------------------------------------------------------------|
A|--3----5-x8--8-x12---------------------------------------------------------|
E|-------3-----6-------------------------------------------------------------|

Chorus
e|---------------------------------------------------------------------------|
B|---------------------------------------------------------------------------|
G|---------------------------------------------------------------------------|
D|-23---75--23---775---------------------------------------------------------|X4
A|-23---75--23---775---------------------------------------------------------|
E|-01---53--01---553---------------------------------------------------------|

Solo

e|---------------------------------------------------------------------------|
B|-----------------------------------------10h11-10-8-6-10h11-10-8-6-6-------|
G|-----5-----5-----5-----5-7-2-----5-----5-----------------------------------|
D|-2-3---2-3---2-3---2-3-------2-3---2-3-------------------------------------|
A|---------------------------------------------------------------------------|
E|---------------------------------------------------------------------------|

Chorus
e|---------------------------------------------------------------------------|
B|---------------------------------------------------------------------------|
G|---------------------------------------------------------------------------|
D|-23---75--23---775---------------------------------------------------------|X4
A|-23---75--23---775---------------------------------------------------------|
E|-01---53--01---553---------------------------------------------------------|

This has been an Alpo production

| /  slide up
| \  slide down
| h  hammer-on
| p  pull-off
| ~  vibrato
| +  harmonic
| x  Mute note
===============================================================================
            

comments powered by Disqus
↑ Back to top | Acceptance Tabs for Take Cover. Lyrics for acoustic guitar and electric guitar. Tablatures and chords are parodies/interpretations of the original songs. You may use it for private study, scholarship, research or language learning purposes only