» » »

Acceptance, Ad Astra Per Aspera Tabs (ver.1)

Artists:  A B C D E F G H I J K L M N O P Q R S T U V W X Y Z # 

Ad Astra Per Aspera Tabs (ver.1)

Acceptance Tabs
 Rating:
4/5 (7 votes)
Ad Astra Per Aspera lessons Tabs too difficult? Try these video lessons and learn fast
1
                -------------------------------------------------------------------------------
                             As Astra Per Aspero - Acceptance
-------------------------------------------------------------------------------

Tuning:standard

e|15-12---------15-12--------------------------------------------------------|
B|-----13-12-12-------13-12-10----8-10-12-10-10-8-10-12-10-8---8888-10101010-|
G|---------------------------------------------------------------------------|
D|---------------------------------------------------------------------------|
A|---------------------------------------------------------------------------|
E|---------------------------------------------------------------------------|

e|---------------------------------------------------------------------------|
B|12121212-13131310----------------------------------------------------------|
G|------------------------12-9-7-7h9-------9~--------12-9-7-----------9~-----|
D|------------------5h7h9------------5h7h9----5h7h9---------9---5h7h9--------|
A|---------------------------------------------------------------------------|
E|---------------------------------------------------------------------------|

e|---------------------------------------------------------------------------|
B|---------------------------------------------------------------------------|
G|------12-9-7-7h9-------9~--------12-9-7-----------9~-------------------9~--|
D|5h7h9------------5h7h9------5h7h9---------9-5h7h9-----7~-7h9-9-9/10-9p7----|
A|---------------------------------------------------------------------------|
E|---------------------------------------------------------------------------|

e|---------------------------------------------------------------------------|
B|---------------------------------------------------12-12h13p12-10/8-8------|
G|5-7------12~-5-7-----12~-------------------12-9-12-------------------------|
D|----9--5--------9-5------7~-7h9-9-9/10-9p7---------------------------------|
A|---------------------------------------------------------------------------|
E|---------------------------------------------------------------------------|

e|---------------------------------------------------------------------------|
B|5555-8888-10101010-12121212-15~-13-12-12-12h13p12-10-8h10-8----------------|
G|---------------------------------------------------------------------------|
D|---------------------------------------------------------------------------|
A|---------------------------------------------------------------------------|
E|---------------------------------------------------------------------------|

e|------------------------------------------------15p12-15p12-15p12-15p12----|
B|13-12p10h12-13-12p10h12-13-12p10h12-13-12p10h12----------------------------|
G|---------------------------------------------------------------------------|
D|---------------------------------------------------------------------------|
A|---------------------------------------------------------------------------|
E|---------------------------------------------------------------------------|

e|15p12-15p12--15\0--|
B|-------------------|
G|-------------------|
D|-------------------|
A|-------------------|
E|-------------------|

e|---------------------------------------------------------------------------|
B|---------------------------------------------------------------------------|
G|---------------------------------------------------------------------------|
D|---------------------------------------------------------------------------|
A|---------------------------------------------------------------------------|
E|---------------------------------------------------------------------------|


| /  slide up
| \  slide down
| h  hammer-on
| p  pull-off
| ~  vibrato
| +  harmonic
| x  Mute note
===============================================================================
            
Submit corrections

comments powered by Disqus
↑ Back to top | Acceptance Tabs for Ad Astra Per Aspera. Lyrics for acoustic guitar and electric guitar. 1 Tablatures and chords are parodies/interpretations of the original songs. You may use it for private study, scholarship, research or language learning purposes only