» » »

Ad Astra Per Aspera Bass tabs (ver.1)

Artists:  A B C D E F G H I J K L M N O P Q R S T U V W X Y Z # 

Ad Astra Per Aspera Bass tabs (ver.1)

Acceptance
Rating:
0/5 (0 votes)

Hard to play? Try these video lessons and learn fast.
                Started re-tabbing songs *on request* again.
This is one of my first submitted tabs in a while.

This song is pretty simple but requires a half step down tuning due to the end (just 
note at the very end)
Tuning: Eb, Ab, Bb, Gb

The tuning I used for the video I made was "Eb G C F", but this seems to be more simple.

(MORE TABS TO COME!)

[Key for this tab]
“#’s on top” = beat of the measure
h            = hammer
|~~3~~|      = third notes
/            = slide up


  1   2   3   4     1   2   3   4
|-----------------|-----------------|
|-----------------|-----------------|  3x
|-0---0---0---0---|-0---0---0---0---|
|-----------------|-----------------|

  1   2   3   4     1   2   3   4
|-----------------|-----------------|
|-----------------|-----------------|
|-0-0-0-0-0-0-0-0-|-0-0-0-0-0-0-0-0-|
|-----------------|-----------------|

  1   2   3   4     1   2   3   4      1   2   3   4     1   2   3   4
|-----------------|-----------------|-----------------|-----------------|
|-----------------|-----------------|-----------------|-----------------|
|-0---0-----0-0---|-----------------|-----------------|-----------------|
|-----------------|---------3-1-3---|-1---1-----1-1---|---------1-2-1-3-|

  1   2   3   4     1   2   3   4     1   2   3   4     1     2   3   4
|-----------------|-----------------|-----------------|-------------------|
|-----------------|-----------------|-----------------|---2h3---2---------|
|-0---0-----0-0---|-----------------|-----------------|-----------3-2-3---|
|-----------------|---------3-1-3---|-1---1-----1-1---|-------------------|

  1   2   3   4     1   2   3   4     1   2   3   4     1   2   3   4
|-----------------|-----------------|-----------------|-----------------|
|-----------------|-----------------|-----------------|-----------------|
|-0---0-----0-0---|-----------------|-----------------|-----------------|
|-----------------|---------3-1-3---|-1---1-----1-1---|-----------------|

  1   2   3   4     1   2   3   4     1   2   3   4     1   2   3   4
|-----------------|-----------------|-----------------|-----------------|
|-----------------|-----------------|-----------------|-----------------|
|-0---0-----0-0---|-----------------|-----------------|-----------------|
|-----------------|---------3-1-3---|-1---1-----1-1---|-----------------|

  1   2   3   4     1   2   3   4     1   2   3   4     1   2   3   4
|-----------------|-------------0-2-|-----------------|-------------0-2-|
|-------------2---|-----------2-----|-------------2---|-----------2-----|
|---------2-3-----|---------3-------|---------2-3-----|---------3-------|
|-1--1--1---------|-1--1--1---------|-1--1--1---------|-1--1--1---------|
  |~~3~~|           |~~3~~|           |~~3~~|           |~~3~~|

  1   2   3   4     1   2   3   4
|-------------0---|-------------0-2-|-------------0-2-|-------------0-0-|
|---------0-2-----|---------0-2-----|---------0-2-----|---------0-2-----|
|-0--0--0---------|-0--0--0---------|-0--0--0---------|-0--0--0---------|
|-----------------|-----------------|-----------------|-----------------|
  |~~3~~|           |~~3~~|           |~~3~~|           |~~3~~|

  1   2   3   4     1   2   3   4     1   2   3   4     1   2   3   4
|-----------------|-------------0-2-|-----------------|-------------0-2-|
|-------------2---|-----------2-----|-------------2---|-----------2-----|
|---------2-3-----|---------3-------|---------2-3-----|---------3-------|
|-1--1--1---------|-1--1--1---------|-1--1--1---------|-1--1--1---------|
  |~~3~~|           |~~3~~|           |~~3~~|           |~~3~~|


  1   2   3   4     1   2   3   4     1   2   3   4     1   2   3   4
|-------------0---|-------------0-2-|-------------0---|-2--0----0---------|
|---------0-2-----|---------0-2-----|--------0-2-----|-------2---2-0-2----|
|-0--0--0---------|-0--0--0---------|-0--0--0---------|-------------------|
|-----------------|-----------------|-----------------|-------------------|
  |~~3~~|           |~~3~~|           |~~3~~|           |~~3~~|

  1   2   3   4     1   2   3   4     1   2   3   4     1   2   3   4
|-----------------|-----------------|-----------------|-----------------|
|-----------------|-----------------|-----------------|-----------------|
|-3---------------|---------3/5-----|-0---------------|-----------------|
|-----------------|-----------------|-----------------|-----------------|

  1   2   3   4     1   2   3   4     1   2   3   4     1   2   3   4
|-----------------|-----------------|-----------------|-----------------|
|-----------------|-----------------|-----------------|-----------------|
|-----------------|-----------------|-----------------|-----------------|
|-0--0--0-0--0--0-|-0--0--0-0-0-0-0-|-1-1-1-1-1-1-1-1-|-1-1-1-1-1-------|
  |~~3~~| |~~3~~|   |~~3~~|
            
Hard to play? Try these video lessons and learn fast. | Correct




comments powered by Disqus
↑ Back to top | Tablatures and chords are parodies/interpretations of the original songs. You may use it for private study, scholarship, research or language learning purposes only