» » »

Where Have All The Boothboys Gone Tabs (ver.1)

Artists:  A B C D E F G H I J K L M N O P Q R S T U V W X Y Z # 

Where Have All The Boothboys Gone Tabs (ver.1)

A.C.A.B
Rating:
0/5 (0 votes)

Tabs too difficult? Try these video lessons and learn fast.
                Tuning: standard
NOt entirely correct .. its close .. i dont know actually .. gimme me ur comment and pls rate all my other tabs too ..

  Intro 1x
e|----------|----------|----------|----------|-------------------------------|
B|----------|----------|----------|----------|-------------------------------|
G|-5----5x--|----------|----------|----------|-------------------------------|
D|-5----5x--|-2----2x--|-7----7x--|-3----3x--|-5----5x-----------------------|
A|-3----3x--|-2----2x--|-7----7x--|-3----3x--|-5----5x-----------------------|
E|----------|-0----0x--|-5----5x--|-1----1x--|-3----3x-----------------------|

  
  Little solo after intro (a bit of improvisation)
e|---------------------------------------------------------------------------|
B|---------------------------------------------------------------------------|
G|-7b-5~--7-7b-5-4~--7-7b-5---------5---------5/9/10~-9-9-7-7-5-5-4-4/5-5~---|
D|--------------------------7~--5-7---7~--5-7--------------------------------|
A|---------------------------------------------------------------------------|
E|---------------------------------------------------------------------------|

e|---------------------------------------------------------------------------|
B|---------------------------------------------------------------------------|
G|-7-7b-5-4~--/10-9\7-7-9b-5---------5---------5/9-10-9-9-7-7-5-5-4-4/5-5~---|
D|---------------------------7~--5-7---7~--5-7-------------------------------|
A|---------------------------------------------------------------------------|
E|---------------------------------------------------------------------------|

  Verse 2x
e|----------------------------------|----------------------------------------|
B|----------------------------------|----------------------------------------|
G|-5-5-5-5-5-5-5-5-5-5-5-5-5-5-5-5--|----------------------------------------|
D|-5-5-5-5-5-5-5-5-5-5-5-5-5-5-5-5--|-2-2-2-2-2-2-2-2-2-2-2-2-2-2-2-2--------|
A|-3-3-3-3-3-3-3-3-3-3-3-3-3-3-3-3--|-2-2-2-2-2-2-2-2-2-2-2-2-2-2-2-2--------|
E|----------------------------------|-0-0-0-0-0-0-0-0-0-0-0-0-0-0-0-0--------|

e|----------------------------------|----------------------------------------|
B|----------------------------------|----------------------------------------|
G|----------------------------------|----------------------------------------|
D|-7-7-7-7-7-7-7-7-7-7-7-7-7-7-7-7--|-3-3-3-3-3-3-3-3-3-3-3-3-3-3-3-3--------|
A|-7-7-7-7-7-7-7-7-7-7-7-7-7-7-7-7--|-3-3-3-3-3-3-3-3-3-3-3-3-3-3-3-3--------|
E|-5-5-5-5-5-5-5-5-5-5-5-5-5-5-5-5--|-1-1-1-1-1-1-1-1-1-1-1-1-1-1-1-1--------|

e|---------------------------------------------------------------------------|
B|---------------------------------------------------------------------------|
G|---------------------------------------------------------------------------|
D|-5-5-5-5-5-5-5-5-5-5-5-5-5-5-5-5-------------------------------------------|
A|-5-5-5-5-5-5-5-5-5-5-5-5-5-5-5-5-------------------------------------------|
E|-3-3-3-3-3-3-3-3-3-3-3-3-3-3-3-3-------------------------------------------|

  Chorus
e|----------------------------------|----------------------------------------|
B|----------------------------------|----------------------------------------|
G|----------------------------------|----------------------------------------|
D|-3-3-3-3-3-3-3-3-3-3-3-3-3-3-3-3--|-5-5-5-5-5-5-5-5-5-5-5-5-5-5-5-5--------|
A|-3-3-3-3-3-3-3-3-3-3-3-3-3-3-3-3--|-5-5-5-5-5-5-5-5-5-5-5-5-5-5-5-5--------|
E|-1-1-1-1-1-1-1-1-1-1-1-1-1-1-1-1--|-3-3-3-3-3-3-3-3-3-3-3-3-3-3-3-3--------|

e|------------------|------------------|-------------------------------------|
B|------------------|------------------|-------------------------------------|
G|-5-5-5-5-5-5-5-5--|------------------|-------------------------------------|
D|-5-5-5-5-5-5-5-5--|-2-2-2-2-2-2-2-2--|-7-7-7-7-7-7-7-7-7-7-7-7-7-7-7-7-----|
A|-3-3-3-3-3-3-3-3--|-2-2-2-2-2-2-2-2--|-7-7-7-7-7-7-7-7-7-7-7-7-7-7-7-7-----|
E|------------------|-0-0-0-0-0-0-0-0--|-5-5-5-5-5-5-5-5-5-5-5-5-5-5-5-5-----|
 
e|----------------------------------|----------------------------------------|
B|----------------------------------|----------------------------------------|
G|----------------------------------|----------------------------------------|
D|-3-3-3-3-3-3-3-3-3-3-3-3-3-3-3-3--|-5-5-5-5-5-5-5-5-5-5-5-5-5-5-5-5--------|
A|-3-3-3-3-3-3-3-3-3-3-3-3-3-3-3-3--|-5-5-5-5-5-5-5-5-5-5-5-5-5-5-5-5--------|
E|-1-1-1-1-1-1-1-1-1-1-1-1-1-1-1-1--|-3-3-3-3-3-3-3-3-3-3-3-3-3-3-3-3--------|
 
e|---------------------------------------------------------------------------|
B|---------------------------------------------------------------------------|
G|-5-5-5-5-5-5-5-5-5-5-5-5-5-5-5-5-5-5-5-5-5-5-5-5-5-5-5-5-5-5-5-5-----------|
D|-5-5-5-5-5-5-5-5-5-5-5-5-5-5-5-5-5-5-5-5-5-5-5-5-5-5-5-5-5-5-5-5-----------|
A|-3-3-3-3-3-3-3-3-3-3-3-3-3-3-3-3-3-3-3-3-3-3-3-3-3-3-3-3-3-3-3-3-----------|
E|---------------------------------------------------------------------------|
  
  A little solo thingy in the chorus on the third note
e|---------------------------------------------------------------------------|
B|------5-5/8~-6-5~----------------------------------------------------------|
G|-5~5~----------------------------------------------------------------------|
D|---------------------------------------------------------------------------|
A|---------------------------------------------------------------------------|
E|---------------------------------------------------------------------------|

  Solo
e|---------------------------------------------------------------------------|
B|---------------------------------------------------------------------------|
G|-7b-5~--7-7b-5-4~--7-7b-5---------5---------5/9/10~-9-9-7-7-5-5-4-4/5-5~---|
D|--------------------------7~--5-7---7~--5-7--------------------------------|
A|---------------------------------------------------------------------------|
E|---------------------------------------------------------------------------|

e|---------------------------------------------------------------------------|
B|---------------------------------------------------------------------------|
G|-7-7b-5-4~--/10-9\7-7-9b-5---------5---------5/9-10-9-9-7-7-5-5-4-4/5-5~---|
D|---------------------------7~--5-7---7~--5-7-------------------------------|
A|---------------------------------------------------------------------------|
E|---------------------------------------------------------------------------|





| /  slide up
| \  slide down
| h  hammer-on
| p  pull-off
| ~  vibrato
| +  harmonic
| x  Mute note
            
Tabs too difficult? Try these video lessons and learn fast.


comments powered by Disqus
↑ Back to top | Tablatures and chords are parodies/interpretations of the original songs. You may use it for private study, scholarship, research or language learning purposes only