» » »

Skinhead For Life Tabs (ver.4)

Artists:  A B C D E F G H I J K L M N O P Q R S T U V W X Y Z # 

Skinhead For Life Tabs (ver.4)

A.C.A.B
Rating:
0/5 (0 votes)

Hard to play? Try these video lessons and learn fast.
                Intro:

|--------------------------------|-----------------------------------|
|--------------------------------|-----------------------------------|
|--------------------------------|-----------------------------------|
|--------------------------------|-----2--------2-----2--------2-3-2-|
|-----3--------3-----3--------3--|--3-----3--3-----3-----3--3--------|
|--5-----5--5-----5-----5--5-----|-----------------------------------|

          A5~                              C5~

|--------------------------------|------------------------------------------------------|
|--------------------------------|------------------------------------------------------|
|--------------------------------|------------------------------------------------------|
|--------------------------------|--------------------------------------------------7b--|
|-----2--------2-----2--------2--|-----3--------3------3------3--5--3--5--7---5--7------|
|--3-----3--3-----3-----3--3-----|--5-----5--5-----55-----55----------------------------|

         G5~                                A5~

Verse/chorus/solo:

A5,C5,G5,A5

Prechorus:

|-----------------|-----------------|-----------------|-----------------|
|-----------------|-----------------|-----------------|-----------------|
|-----------------|-----------------|-----------------|-----------------|
|-----------------|-----------------|-----3--------3--|-----------------|
|-----7--------7--|-----2--------2--|--5-----5--5-----|-----3--------3--|
|--8-----8--8-----|--3-----3--3-----|-----------------|--5-----5--5-----|

|-----------------|-----------------|-----------------|-----------------|
|-----------------|-----------------|-----------------|-----------------|
|-----------------|-----------------|-----------------|-----------------|
|-----------------|-----------------|-----------------|-----------------|
|-----7--------7--|-----2--------2--|-----3--------3--|-----3--------3--|
|--8-----8--8-----|--3-----3--3-----|--5-----5--5-----|--5-----5--5-----|

     C5~                G5~                D5~                A5~

solo:

|-------------------------------------------------------------------------------|
|-------------------------------------------------------------------------------|
|------9bv--9bv--9bv--7--5--7--5----7--5--9--7--9--7--12bv--12bv--12bv--9--7--5-|
|--7b---------------------------------------------------------------------------|
|-------------------------------------------------------------------------------|
|-------------------------------------------------------------------------------|

|---------------------------------------------------------------------------------|
|---------------------------------------------------------------------------------|
|-7bv--7bv--7bv--5--4--0--------5--4--------5--4--------------5--7--9bv--9bv--9bv-|
|-------------------------7--5--------7--5--------------5--7----------------------|
|-------------------------------------------------5--7----------------------------|
|---------------------------------------------------------------------------------|

|--------------------------------------------------------------------------------|
|--------------------------------------------------------------------------------|
|9--7--5--4--0--12bv--12bv--12bv--9--7--5--7bv--7bv--7bv--5--4--0--------5--4----|
|------------------------------------------------------------------7--5--------7-|
|--------------------------------------------------------------------------------|
|--------------------------------------------------------------------------------|

|----------------------------------|
|----------------------------------|
|----5--4--------5--4--------------|
|-5--------7--5--------7--5--5--7--|
|----------------------------------|
|----------------------------------|

b: bend
v: vibrate
~: strums
p: pull off

|---------------------|
|---------------------|
|------------------7--|
|--7----10----5----7--|
|--7----10----5----5--|
|--5----8-----3-------|

   A5   C5    G5   D5
            
Hard to play? Try these video lessons and learn fast. | Correct




comments powered by Disqus
↑ Back to top | Tablatures and chords are parodies/interpretations of the original songs. You may use it for private study, scholarship, research or language learning purposes only