» » »

A.C.A.B, Setelah Tabs (ver.1)

Artists:  A B C D E F G H I J K L M N O P Q R S T U V W X Y Z # 

Setelah Tabs (ver.1)

A.C.A.B Tabs
Rating:
0/5 (0 votes)
Setelah lessons Tabs too difficult? Try these video lessons and learn fast
                
intro.

   D               Dm
e|-5----5--5/4-----5--------|
B|-7---------------6--------|
G|-7------------7--7--------|
D|-7---------------7--------|
A|-5---------------5--------|
E|--------------------------|

strum
A  A7

   D               Dm
e|-5----5--5/4-----5--------|
B|-7---------------6--------|
G|-7------------7--7--------|
D|-7---------------7--------|
A|-5---------------5--------|
E|--------------------------|

strum
E  E7


    A         Ab        A7        F#
aku menjerit, memanggil berjuta kali,
    Bm        A/D    Ab              E
aku bermimpi, mencari, kau tak aku temui,
          A           Ab          A7            F#
hingga ku tertanya, entah dimana salah dan silapnya,
       Bm            A/D        Ab                E
apakah engkau hanya bersandiwara, membiarku sengsara..


       D          Dm      A             A7
engkau dan aku entah kan dapat menahannya,
       D          Dm         E     E7   
engkau dan aku bila kan bahagia..

setelah...
  A                    C#   F#                    C#m
e|-----------------------------------------------------|
B|-----------------------------------------------------|
G|------2---2\6----4\2-------------2---2\6---4\2---1---|
D|----2---2------------4---------2---2-----------------|
A|-----------------------------------------------------|
E|-----------------------------------------------------|

         D     Dm        A                   E
sekian lama berdua, mengapakah seakan tak bermakna,
     A  C#    F# C#m       D     Dm       A                   E
setelah, setelah, sekian lama berdua mengapakah seakan tak bermakna bercinta...

solo:

    A          Ab          A7                F#
e|------12-12-----12-12----12--10--10-9--9--7-6--7\9----|
B|--10----------9---------------------------------------|
G|------------------------------------------------------|
D|------------------------------------------------------|
A|------------------------------------------------------|
E|------------------------------------------------------|

   Bm          A/D                   Ab                      E
e|-----10-10-------10--10\12--10--------7-7-9-10-7-10--10\12-----|
B|--7-----------6--------------------------------------------12--|
G|---------------------------------------------------------------|
D|---------------------------------------------------------------|
A|---------------------------------------------------------------|
E|---------------------------------------------------------------|


       D          Dm      A             A7
engkau dan aku entah kan dapat menahannya,
       D          Dm         E     E7   
engkau dan aku bila kan bahagia..

setelah...
  A                    C#   F#                   C#m
e|-----------------------------------------------------|
B|-----------------------------------------------------|
G|------2---2\6----4\2-------------2---2\6---4\2---1---|
D|----2---2------------4---------2---2-----------------|
A|-----------------------------------------------------|
E|-----------------------------------------------------|

         D     Dm        A                   E
sekian lama berdua, mengapakah seakan tak bermakna,
     A  C#    F# C#m       D     Dm       A                   E
setelah, setelah, sekian lama berdua mengapakah seakan tak bermakna bercinta...

   A                   C#                     F#
e|------------------------------------------------|
B|------------------------------------------------|
G|------2---2\6----4\2--------2---2\6---4\2---1---|
D|----2---2------------4----2---2-----------------|
A|------------------------------------------------|
E|------------------------------------------------|

    C#m           D     Dm
setelah, sekian lama berdua....

korang try dengar lagu original, pastu ikut je lah... haha okeh chow..
            

comments powered by Disqus
↑ Back to top | A.C.A.B Tabs for Setelah. Lyrics for acoustic guitar and electric guitar. Tablatures and chords are parodies/interpretations of the original songs. You may use it for private study, scholarship, research or language learning purposes only