>
 >
Strength

Strength Guitar Tabs

Abingdon Boys School - Strength chords, tabs, tablatures, lyrics

Guitar lessons | Add/correct | Request | Top 50 tabs Artists:  A B C D E F G H I J K L M N O P Q R S T U V W X Y Z 0-9

Strength Guitar Tabs – Abingdon Boys School

CD, Sheet music, Poster

Do you like Strength? Share with your friends now
Bass TabsTabsTabs v2Tabs v3


Tuning: Drop D (D A D G B E) 




  Intro  0:00

  Guitar 1 
E|-------------------------------------------------------------------------------|
B|-------------------------------------------------------------------------------|
G|----------/10--10-10--10-10--10-10--10-10--10-10-------------------------------|
D|-------------------------------------------------------------------------------|
A|----------/8---8--8---8--8---8--8---8--8---8--8--------------------------------|
D|--0-0--0-----------------------------------------------------------------------|
 |
 |Guitar 2
E|-------------------------------------------------------------------------------|
B|-------------------------------------------------------------------------------|
G|----------/10--10-10--10-10--10-10--10-10--10-10-------------------------------|
D|-------------------------------------------------------------------------------|
A|----------/8---8--8---8--8---8--8---8--8---8--8--------------------------------|
D|--0-0--0-----------------------------------------------------------------------|


  Guitar 1
E|-------------------------------------------------------------------------------|
B|-------------------------------------------------------------------------------|
G|----------/9---9--9---9--9---9--9---9--9---9--9--------------------------------|
D|-------------------------------------------------------------------------------|
A|----------/7---7--7---7--7---7--7---7--7---7--7--------------------------------|
D|--0-0--0-----------------------------------------------------------------------|
 |
 |Guitar 2
E|-------------------------------------------------------------------------------|
B|-------------------------------------------------------------------------------|
G|----------/10--10-10--10-10--10-10--10-10--10-10-------------------------------|
D|-------------------------------------------------------------------------------|
A|----------/8---8--8---8--8---8--8---8--8---8--8--------------------------------|
D|--0-0--0-----------------------------------------------------------------------|



  Guitar 1
E|-------------------------------------------------------------------------------|
B|-------------------------------------------------------------------------------|
G|----------/7---7--7---7--7---7--7---7--7---7--7--------------------------------|
D|-------------------------------------------------------------------------------|
A|----------/5---5--5---5--5---5--5---5--5---5--5--------------------------------|
D|--0-0--0-----------------------------------------------------------------------|
 |
 |Guitar 2
E|-------------------------------------------------------------------------------|
B|-------------------------------------------------------------------------------|
G|----------/10--10-10--10-10--10-10--10-10--10-10-------------------------------|
D|-------------------------------------------------------------------------------|
A|----------/8---8--8---8--8---8--8---8--8---8--8--------------------------------|
D|--0-0--0-----------------------------------------------------------------------|



  Guitar 1
E|-------------------------------------------------------------------------------|
B|-------------------------------------------------------------------------------|
G|----------/10-----10-10--10-10--10-10--10-10--10-10----------------------------|
D|-------------------------------------------------------------------------------|
A|----------/8------8--8---8--8---8--8---8--8---8--8-----------------------------|
D|--0-0--0-----------------------------------------------------------------------|
 |
 |Guitar 2
E|-------------------------------------------------------------------------------|
B|-------------------------------------------------------------------------------|
G|----------12/14---14-14--14-14--14-14--14-14--14-14----------------------------|
D|-------------------------------------------------------------------------------|
A|----------10/12---12-12--12-12--12-12--12-12--12-12----------------------------|
D|--0-0--0-----------------------------------------------------------------------|




Intro part 2 0:11
Guitar 1

E|-------------------------------------------------------------------------------|
B|----10--8--10------------------------------------------------------------------|
G|---------------10--9--10---10--9--10---9--7--9---------------------------------|
D|-------------------------------------------------------------------------------| x4
A|-------------------------------------------------------------------------------|
D|-------------------------------------------------------------------------------|


E|-------------------------------------------------------------------------------|
B|--8---6--8------6---6--8-----6---6-8----6---6-8--------------------------------|
G|----5---------5---5--------5---5------5---5------------------------------------|
D|-------------------------------------------------------------------------------|
A|-------------------------------------------------------------------------------|
D|-------------------------------------------------------------------------------|


Intro part 2 0:11
Guitar 2

E|-------------------------------------------------------------------------------|
B|-------------------------------------------------------------------------------|
G|------------------3--3-3--3-3-3----5--5-5--5-5-5---2--2-2--2-2-2---------------|
D|-0--0-0--0-0-0----3--3-3--3-3-3----5--5-5--5-5-5---2--2-2--2-2-2---------------|
A|-0--0-0--0-0-0----1--1-1--1-1-1----3--3-3--3-3-3---0--0-0--0-0-0---------------|
D|-0--0-0--0-0-0-----------------------------------------------------------------|


E|-------------------------------------------------------------------------------|
B|-------------------------------------------------------------------------------|
G|-3-3--3--3-3--3--3-3--3--3-3--2-2----------------------------------------------|
D|-3-3--3--3-3--3--3-3--3--3-3--2-2--5-5--5--5-5--5---7-7--7--7-7----------------|
A|-1-1--1--1-1--1--1-1--1--1-1--0-0--5-5--5--5-5--5---7-7--7--7-7----------------|
D|-----------------------------------5-5--5--5-5--5---7-7--7--7-7----------------|


E|-------------------------------------------------------------------------------|
B|-------------------------------------------------------------------------------|
G|------------------3--3-3--3-3-3----5--5-5--5-5-5---2--2-2--2-2-2---------------|
D|-0--0-0--0-0-0----3--3-3--3-3-3----5--5-5--5-5-5---2--2-2--2-2-2---------------|
A|-0--0-0--0-0-0----1--1-1--1-1-1----3--3-3--3-3-3---0--0-0--0-0-0---------------|
D|-0--0-0--0-0-0-----------------------------------------------------------------|



E|-------------------------------------------------------------------------------|
B|-------------------------------------------------------------------------------|
G|-3-3-x-3-3-3-x-3-3-3-x-3-3-3--2-2----------------------------------------------|
D|-3-3-x-3-3-3-x-3-3-3-x-3-3-3--2-2--5-5--x-5-5-5-x-5---7-7--x-7-7-7-----0-------|
A|-1-1-x-1-1-1-x-1-1-1-x-1-1-1--0-0--5-5--x-5-5-5-x-5---7-7--x-7-7-7-----0-------|
D|-----------------------------------5-5--x-5-5-5-x-5---7-7--x-7-7-7-----0-------|




Verse 1 part 1 

Guitar 1   0:36

E|---------------------------------------------------------------------------------|
B|---------------------------------------------------------------------------------|
G|---------------------------------------------------------------------------------|
D|-------0-h7-t14-p7-t14/15-p7-p0-t14-p7-t14/15-p7-p0-h10-t12----------------------|  X 2
A|---------------------------------------------------------------------------------|
D|---------------------------------------------------------------------------------|


E|---------------------------------------------------------------------------------|
B|---------------------------------------------------------------------------------|
G|---------------------------------------------------------------------------------|
D|-------0-h8-t15-p8-t14/15-p8-p0-t15-p8-t14/15-p8-p0-h10-t12----------------------|  X 2
A|---------------------------------------------------------------------------------|
D|---------------------------------------------------------------------------------|


E|---------------------------------------------------------------------------------|
B|---------------------------------------------------------------------------------|
G|---------------------------------------------------------------------------------|
D|-------0-h7-t14-p7-t14/15-p7-p0-t14-p7-t14/15-p7-p0-h10-t12----------------------|  X 2
A|---------------------------------------------------------------------------------|
D|---------------------------------------------------------------------------------|

   
E|---------------------------------------------------------------------------------|
B|---------------------------------------------------------------------------------|
G|---------------------------------------------------------------------------------|
D|-------0-h8-t15-p8-t14/15-p8-p0-t15-p8-t14/15-p8-p0-h10-t12p---------------------|
A|---------------------------------------------------------------------------------|
D|---------------------------------------------------------------------------------|


E|---------------------------------------------------------------------------------|
B|---------------------------------------------------------------------------------|
G|------0-h5-t9-p5-t9/10-p5-h0-t9-p5-t9/10-p5-p0-h5-h7-----------------------------|
D|---------------------------------------------------------------------------------|
A|---------------------------------------------------------------------------------|
D|---------------------------------------------------------------------------------|


Verse 1 part 2  

Guitar 1   0:56

E|---------------------------------------------------------------------------------|
B|---------------------------------------------------------------------------------|
G|-t10p5h7t10p5h7t10p5h7t10p7t10p5h7t10p5--t12p5h7t12p5h7t12p5h7t12p7t12p5h7t12p5--|
D|---------------------------------------------------------------------------------|
A|---------------------------------------------------------------------------------|
D|---------------------------------------------------------------------------------|


E|---------------------------------------------------------------------------------|
B|---------------------------------------------------------------------------------|
G|-t12p5h7t12p5h7t12p5h7t12p7t12p5h7t12p5--t10p5h7t10p5h7t10p5h7t10p7t10p5h7t10p5--|
D|---------------------------------------------------------------------------------|
A|---------------------------------------------------------------------------------|
D|---------------------------------------------------------------------------------|


E----------------------------------------------------------------------------------|
B|---------------------------------------------------------------------------------|
G|-t10p5h7t10p5h7t10p5h7t10p7t10p5h7t10p5--t12p5h7t12p5h7t12p5h7t12p7t12p5h7t12p5--|
D|---------------------------------------------------------------------------------|
A|---------------------------------------------------------------------------------|
D----------------------------------------------------------------------------------|


E|---------------------------------------------------------------------------------|
B|---------------------------------------------------------------------------------|
G|--t12p5h7t12p5h7t12p5h7t12p7t12p5h7t12p5----t10p5h7t10p5h7t10p5------------------|
D|---------------------------------------------------------------------------------|
A|----------------------------------------------------------------0-0-0-0----------|
D|----------------------------------------------------------------0-0-0-0----------|

                                                                  PM----- 
  
Vers 1 part 2

Guitar 2 Clean  0:56

E|-----------------------------------0------|
B|-1----1---1-------1-----1---1--------3----|
G|---------------0------0---------2---------|
D|---3--------3-------3---------3-----------|
A|------------------------------------------|
D|------------------------------------------|


E|------------------------------------------|
B|-1----1---1-------1-----1---3-------------|
G|---------------0------0-----2-------------|
D|---3--------3-------3-------3-------------|
A|------------------------------------------|
D|------------------------------------------|



Chorus 1   1:16
Guitar 1

E|-------------------------------------------------------------------------------|
B|----10--8--10------------------------------------------------------------------|
G|---------------10--9--10---10--9--10---9--7--9---------------------------------|
D|-------------------------------------------------------------------------------|
A|-------------------------------------------------------------------------------|
D|-------------------------------------------------------------------------------|


E|-------------------------------------------------------------------------------|
B|--10--8--10------8-----------------8--9--10------------------------------------|
G|--------------9-----9----7--9--10----------------------------------------------|
D|-------------------------------------------------------------------------------|
A|-------------------------------------------------------------------------------|
D|-------------------------------------------------------------------------------|


E|-------------------------------------------------------------------------------|
B|----10--8--10------------------------------------------------------------------|
G|---------------10--9--10---10--9--10---9--7--9---------------------------------|
D|-------------------------------------------------------------------------------|  x3
A|-------------------------------------------------------------------------------|
D|-------------------------------------------------------------------------------|



Chorus 1   1:16
Guitar 2

E|-------------------------------------------------------------------------------|
B|-------------------------------------------------------------------------------|
G|------------------3--3-3--3-3-3----5--5-5--5-5-5---2--2-2--2-2-2---------------|
D|-0--0-0--0-0-0----3--3-3--3-3-3----5--5-5--5-5-5---2--2-2--2-2-2---------------|
A|-0--0-0--0-0-0----1--1-1--1-1-1----3--3-3--3-3-3---0--0-0--0-0-0---------------|
D|-0--0-0--0-0-0-----------------------------------------------------------------|


E|-------------------------------------------------------------------------------|
B|-------------------------------------------------------------------------------|
G|-3-3--x--3--3-3--x--3--2-2--x--2--2-2--x--2------------------------------------|
D|-3-3--x--3--3-3--x--3--2-2--x--2--2-2--x--2---0--2--3---5-6-7------------------|
A|-1-1--x--1--1-1--x--1--0-0--x--0--0-0--x--0---0--2--3---5-6-7------------------|
D|----------------------------------------------0--2--3---5-6-7------------------|


E|-------------------------------------------------------------------------------|
B|-------------------------------------------------------------------------------|
G|-----3--3-3--3-3-3----5--5-5--5-5-5---2--2-2--2-2-2------5---------------------|
D|-----3--3-3--3-3-3----5--5-5--5-5-5---2--2-2--2-2-2---0--5---------------------|
A|-----1--1-1--1-1-1----3--3-3--3-3-3---0--0-0--0-0-0---0--3---------------------|
D|------------------------------------------------------0------------------------|


E|-------------------------------------------------------------------------------------------|
B|-------------------------------------------------------------------------------------------|
G|-------------------------------------------------------------------------------------------|
D|--5-5--x--5--5-5--x--5---5-5--x--5--5-5--x--5--7-7--x--7--7-7--x--7--7-7--x--7--7-7--x-----|
A|--5-5--x--5--5-5--x--5---5-5--x--5--5-5--x--5--7-7--x--7--7-7--x--7--7-7--x--7--7-7--x-----|
D|--5-5--x--5--5-5--x--5---5-5--x--5--5-5--x--5--7-7--x--7--7-7--x--7--7-7--x--7--7-7--x-----|


E|-------------------------------------------------------------------------------------------|
B|-------------------------------------------------------------------------------------------|
G|------------------------------------------------------3-3--x--3--3-3--x--3--5-5--x--5--5-5-|
D|--5-5--x--5--5-5--x--5---5-5--x--5--5-5--x--5--7-7----3-3--x--3--3-3--x--3--5-5--x--5--5-5-|
A|--5-5--x--5--5-5--x--5---5-5--x--5--5-5--x--5--7-7----1-1--x--1--1-1--x--1--3-3--x--3--3-3-|
D|--5-5--x--5--5-5--x--5---5-5--x--5--5-5--x--5--7-7-----------------------------------------|



Verse 2 part 1 1:47

Guitar 1  1:47

E|---------------------------------------------------------------------------------|
B|---------------------------------------------------------------------------------|
G|---------------------------------------------------------------------------------|
D|-------0-h7-t14-p7-t14/15-p7-p0-t14-p7-t14/15-p7-p0-h10-t12----------------------|  X 2
A|---------------------------------------------------------------------------------|
D|---------------------------------------------------------------------------------|


E|---------------------------------------------------------------------------------|
B|---------------------------------------------------------------------------------|
G|---------------------------------------------------------------------------------|
D|-------0-h8-t15-p8-t14/15-p8-p0-t15-p8-t14/15-p8-p0-h10-t12----------------------|  X 2
A|---------------------------------------------------------------------------------|
D|---------------------------------------------------------------------------------|


E|---------------------------------------------------------------------------------|
B|---------------------------------------------------------------------------------|
G|---------------------------------------------------------------------------------|
D|-------0-h7-t14-p7-t14/15-p7-p0-t14-p7-t14/15-p7-p0-h10-t12----------------------|  X 2
A|---------------------------------------------------------------------------------|
D|---------------------------------------------------------------------------------|

   
E|---------------------------------------------------------------------------------|
B|---------------------------------------------------------------------------------|
G|---------------------------------------------------------------------------------|
D|-------0-h8-t15-p8-t14/15-p8-p0-t15-p8-t14/15-p8-p0-h10-t12p---------------------|
A|---------------------------------------------------------------------------------|
D|---------------------------------------------------------------------------------|


E|---------------------------------------------------------------------------------|
B|---------------------------------------------------------------------------------|
G|------0-h5-t9-p5-t9/10-p5-h0-t9-p5-t9/10-p5-p0-h5-h7-----------------------------|
D|---------------------------------------------------------------------------------|
A|---------------------------------------------------------------------------------|
D|---------------------------------------------------------------------------------|


Verse 2 part 2  

Guitar 1   2:07

E|---------------------------------------------------------------------------------|
B|---------------------------------------------------------------------------------|
G|-t10p5h7t10p5h7t10p5h7t10p7t10p5h7t10p5--t12p5h7t12p5h7t12p5h7t12p7t12p5h7t12p5--|
D|---------------------------------------------------------------------------------|
A|---------------------------------------------------------------------------------|
D|---------------------------------------------------------------------------------|


E|---------------------------------------------------------------------------------|
B|---------------------------------------------------------------------------------|
G|-t12p5h7t12p5h7t12p5h7t12p7t12p5h7t12p5--t10p5h7t10p5h7t10p5h7t10p7t10p5h7t10p5--|
D|---------------------------------------------------------------------------------|
A|---------------------------------------------------------------------------------|
D|---------------------------------------------------------------------------------|


E----------------------------------------------------------------------------------|
B|---------------------------------------------------------------------------------|
G|-t10p5h7t10p5h7t10p5h7t10p7t10p5h7t10p5--t12p5h7t12p5h7t12p5h7t12p7t12p5h7t12p5--|
D|---------------------------------------------------------------------------------|
A|---------------------------------------------------------------------------------|
D----------------------------------------------------------------------------------|


E|---------------------------------------------------------------------------------|
B|---------------------------------------------------------------------------------|
G|--t12p5h7t12p5h7t12p5h7t12p7t12p5h7t12p5----t10p5h7t10p5h7t10p5------------------|
D|---------------------------------------------------------------------------------|
A|----------------------------------------------------------------0-0-0-0----------|
D|----------------------------------------------------------------0-0-0-0----------|

                                                                  PM----- 
  

Verse 2 part 1

Guitar 2  1:47

E|---------------------------------------------------------------------------------|
B|---------------------------------------------------------------------------------|
G|---------------------------------------------------------------------------------|
D|-----------3/2--------------------------3/2p0----------------3/2p0---------------|
A|--5p3p0--------5p3p0--3h5p3---------3h5-------1-1-3-1----3h5--------0-1-1-3-1----|
D|--------0-------------------0--3h5---------------------5-------------------------|


E|---------------------------------------------------------------------------------|
B|---------------------------------------------------------------------------------|
G|---------------------------------------------------------------------------------|
D|----------3/2p0----------------------3/2------------------------3/2p0------------|
A|------3h5--------------------------------5p3p0-3h5p3--------3h5-------1-1-3-1----|
D|--3h5------------x-x-x-x-x-x-x-x--0------------------0--3h5----------------------|


E|---------------------------------------------------------------------------------|
B|---------------------------------------------------------------------------------|
G|--------------------------------5------------------------------------------------|
D|--------3/2p0-------------x--x--5---5--5--5--5--5--5--5--------------------------|
A|----3h5-------0---3-3--3--x--x--3---3--3--3--3--3--3--3--------------------------|
D|--5------------------------------------------------------------------------------|

                                      pm-----------------


Verse 2 Part 2
  
Guitar 2 Clean 2:07

E|-----------------------------------0------|
B|-1----1---1-------1-----1---1--------3----|
G|---------------0------0---------2---------|
D|---3--------3-------3---------3-----------|
A|------------------------------------------|
D|------------------------------------------|


E|------------------------------------------|
B|-1----1---1-------1-----1---3-------------|
G|---------------0------0-----2-------------|
D|---3--------3-------3-------3-------------|
A|------------------------------------------|
D|------------------------------------------|




Chorus 2  2:27   Same as Chorus 1


Solo  2:52

E|---------------------------------------------------------------------------|
B|--------------------------------------------------------------13-----------|
G|------------------------------5/7--5-5~-------------10-h12b14--------------|
D|---/7~-----3-3--2--5-3--7--5-----------------10h12-------------------------|
A|-------5~-------------------------------/12--------------------------------|
D|---------------------------------------------------------------------------|


E|---------------------------------------------------------------10-13-12-10-|
B|----13-----13-----13------------------------------------10--13-------------|
G|----12b14--12b14--12b14---12-10--9b10br9-------9-10--12--------------------|
D|-----------------------------------------10-12-----------------------------|
A|---------------------------------------------------------------------------|
E|---------------------------------------------------------------------------|


E|-----------10-----------10-12----10----------------------------------------|
B|-10-13b15~----10--13b15-------13----10-10-------13-----13-13---------------|
G|------------------------------------------12b14---12b14---12b14br12-p10-12~|
D|---------------------------------------------------------------------------|
A|---------------------------------------------------------------------------|
D|---------------------------------------------------------------------------|


E|---------/17--15-17-/22-22-17\15h17-17--12b13br12--10----------------------|
B|-----13-----------------------------------------------10--13b15~-----------|
G|-/14-----------------------------------------------------------------------|
D|---------------------------------------------------------------------------|
A|---------------------------------------------------------------------------|
D|---------------------------------------------------------------------------|


E|---------------------------------------------------------------------------|
B|-----13--13--12---15+------------------------------------------------------|
G|-----12--12--12------------------------------------------------------------|
D|---------------------------------------------------------------------------|
A|---------------------------------------------------------------------------|
D|---------------------------------------------------------------------------|

    + = Artificial harmonic. * Make it so it becomes an A note when picked



Chorus 3   3:34
Guitar 1

E|-------------------------------------------------------------------------------|
B|----10--8--10------------------------------------------------------------------|
G|---------------10--9--10---10--9--10---9--7--9---------------------------------|
D|-------------------------------------------------------------------------------|
A|-------------------------------------------------------------------------------|
D|-------------------------------------------------------------------------------|


E|-------------------------------------------------------------------------------|
B|--10--8--10------8-----------------8--9--10------------------------------------|
G|--------------9-----9----7--9--10----------------------------------------------|
D|-------------------------------------------------------------------------------|
A|-------------------------------------------------------------------------------|
D|-------------------------------------------------------------------------------|


E|-------------------------------------------------------------------------------|
B|----10--8--10------------------------------------------------------------------|
G|---------------10--9--10---10--9--10---9--7--9---------------------------------|
D|-------------------------------------------------------------------------------|  x3
A|-------------------------------------------------------------------------------|
D|-------------------------------------------------------------------------------|


E|-------------------------------------------------------------------------------|
B|----10--8--10------------------------------------------------------------------|
G|---------------10--9--10---10--9--10---9--7------------------------------------|
D|-------------------------------------------------------------------------------|
A|-------------------------------------------------------------------------------|
D|-------------------------------------------------------------------------------|




chorus 3   3:34
Guitar 2

E|-------------------------------------------------------------------------------|
B|-------------------------------------------------------------------------------|
G|------------------3--3-3--3-3-3----5--5-5--5-5-5---2--2-2--2-2-2---------------|
D|-0--0-0--0-0-0----3--3-3--3-3-3----5--5-5--5-5-5---2--2-2--2-2-2---------------|
A|-0--0-0--0-0-0----1--1-1--1-1-1----3--3-3--3-3-3---0--0-0--0-0-0---------------|
D|-0--0-0--0-0-0-----------------------------------------------------------------|


E|-------------------------------------------------------------------------------|
B|-------------------------------------------------------------------------------|
G|-3-3--x--3--3-3--x--3--2-2--x--2--2-2--x--2------------------------------------|
D|-3-3--x--3--3-3--x--3--2-2--x--2--2-2--x--2---0--2--3---5-6-7------------------|
A|-1-1--x--1--1-1--x--1--0-0--x--0--0-0--x--0---0--2--3---5-6-7------------------|
D|----------------------------------------------0--2--3---5-6-7------------------|


E|-------------------------------------------------------------------------------|
B|-------------------------------------------------------------------------------|
G|-----3--3-3--3-3-3----5--5-5--5-5-5---2--2-2--2-2-2------5---------------------|
D|-----3--3-3--3-3-3----5--5-5--5-5-5---2--2-2--2-2-2---0--5---------------------|
A|-----1--1-1--1-1-1----3--3-3--3-3-3---0--0-0--0-0-0---0--3---------------------|
D|------------------------------------------------------0------------------------|


E|-------------------------------------------------------------------------------------------|
B|-------------------------------------------------------------------------------------------|
G|-------------------------------------------------------------------------------------------|
D|--5-5--x--5--5-5--x--5---5-5--x--5--5-5--x--5--7-7--x--7--7-7--x--7--7-7--x--7--7-7--x-----|
A|--5-5--x--5--5-5--x--5---5-5--x--5--5-5--x--5--7-7--x--7--7-7--x--7--7-7--x--7--7-7--x-----|
D|--5-5--x--5--5-5--x--5---5-5--x--5--5-5--x--5--7-7--x--7--7-7--x--7--7-7--x--7--7-7--x-----|


E|-------------------------------------------------------------------------------------------|
B|-------------------------------------------------------------------------------------------|
G|-------------------------------------------------------------------------------------------|
D|--5-5--x--5--5-5--x--5---5-5--x--5--5-5--x--5--7-7--x--7--7-7--x--7--7-7--x--7--7-7--x-----|
A|--5-5--x--5--5-5--x--5---5-5--x--5--5-5--x--5--7-7--x--7--7-7--x--7--7-7--x--7--7-7--x-----|
D|--5-5--x--5--5-5--x--5---5-5--x--5--5-5--x--5--7-7--x--7--7-7--x--7--7-7--x--7--7-7--x-----|


E|-------------------------------------------------------------------------------------------|
B|-------------------------------------------------------------------------------------------|
G|------------------------------------------------------3-3--x--3--3-3--x--3--5-5--x--5--5-5-|
D|--5-5--x--5--5-5--x--5---5-5--x--5--5-5--x--5--7-7----3-3--x--3--3-3--x--3--5-5--x--5--5-5-|
A|--5-5--x--5--5-5--x--5---5-5--x--5--5-5--x--5--7-7----1-1--x--1--1-1--x--1--3-3--x--3--3-3-|
D|--5-5--x--5--5-5--x--5---5-5--x--5--5-5--x--5--7-7-----------------------------------------|



Outro  4:04
Guitar 2

E|-------------------------------------------------------------------------------|
B|-------------------------------------------------------------------------------|
G|------------------3--3-3--3-3-3----5--5-5--5-5-5---2--2-2--2-2-2---------------|
D|-0--0-0--0-0-0----3--3-3--3-3-3----5--5-5--5-5-5---2--2-2--2-2-2---------------|
A|-0--0-0--0-0-0----1--1-1--1-1-1----3--3-3--3-3-3---0--0-0--0-0-0---------------|
D|-0--0-0--0-0-0-----------------------------------------------------------------|


E|-------------------------------------------------------------------------------|
B|-------------------------------------------------------------------------------|
G|-3-3--3--3-3--3--3-3--3--3-3--2-2----------------------------------------------|
D|-3-3--3--3-3--3--3-3--3--3-3--2-2--5-5--5--5-5--5---7-7--7--7-7----------------|
A|-1-1--1--1-1--1--1-1--1--1-1--0-0--5-5--5--5-5--5---7-7--7--7-7----------------|
D|-----------------------------------5-5--5--5-5--5---7-7--7--7-7----------------|



Outro 4:15
Guitar 1 

E|-------------------------------------------------------------------------------|
B|----10--8--10------------------------------------------------------------------|
G|---------------10--9--10---10--9--10---9--7--9---------------------------------|
D|-------------------------------------------------------------------------------|
A|-------------------------------------------------------------------------------|
D|-------------------------------------------------------------------------------|


Outro 4:15
Guitar 2

E|-------------------------------------------------------------------------------|
B|-------------------------------------------------------------------------------|
G|------------------3--3-3--3-3-3----5--5-5--5-5-5---2--2-2--2-2-2---------------|
D|-0--0-0--0-0-0----3--3-3--3-3-3----5--5-5--5-5-5---2--2-2--2-2-2---------------|
A|-0--0-0--0-0-0----1--1-1--1-1-1----3--3-3--3-3-3---0--0-0--0-0-0---------------|
D|-0--0-0--0-0-0-----------------------------------------------------------------|



E|-------------------------------------------------------------------------------|
B|-------------------------------------------------------------------------------|
G|-3-3-x-3-3-3-x-3-3-3-x-3-3-3--2-2----------------------------------------------|
D|-3-3-x-3-3-3-x-3-3-3-x-3-3-3--2-2--5-5--x-5-5-5-x-5---7-7-7-7-7-7-7-7----------|
A|-1-1-x-1-1-1-x-1-1-1-x-1-1-1--0-0--5-5--x-5-5-5-x-5---7-7-7-7-7-7-7-7----------|
D|-----------------------------------5-5--x-5-5-5-x-5---7-7-7-7-7-7-7-7----------|

                                                        PM-------------

Outro part 2  4:24

  Guitar 1 
E|-------------------------------------------------------------------------------|
B|-------------------------------------------------------------------------------|
G|----------/10--10-10--10-10--10-10--10-10--10-10-------------------------------|
D|-------------------------------------------------------------------------------|
A|----------/8---8--8---8--8---8--8---8--8---8--8--------------------------------|
D|--0-0--0-----------------------------------------------------------------------|
 |
 |Guitar 2
E|-------------------------------------------------------------------------------|
B|-------------------------------------------------------------------------------|
G|----------/10--10-10--10-10--10-10--10-10--10-10-------------------------------|
D|-------------------------------------------------------------------------------|
A|----------/8---8--8---8--8---8--8---8--8---8--8--------------------------------|
D|--0-0--0-----------------------------------------------------------------------|



  Guitar 1
E|-------------------------------------------------------------------------------|
B|-------------------------------------------------------------------------------|
G|----------12/14---14-14--14-14--14-14--14-14--14-14----------------------------|
D|-------------------------------------------------------------------------------|
A|----------10/12---12-12--12-12--12-12--12-12--12-12----------------------------|
D|--0-0--0-----------------------------------------------------------------------|
 |
 |Guitar 2
E|-------------------------------------------------------------------------------|
B|-------------------------------------------------------------------------------|
G|----------12/14---14-14--14-14--14-14--14-14--14-14----------------------------|
D|-------------------------------------------------------------------------------|
A|----------10/12---12-12--12-12--12-12--12-12--12-12----------------------------|
D|--0-0--0-----------------------------------------------------------------------|

************************************

| /   slide up
| \   slide down
| h   hammer-on
| p   pull-off
| ~   vibrato
| +   harmonic
| x   Mute note
| b   Bend
| pb  Pre-bend
| br  Bend release
| pbr Pre-bend release
| brb Bend release bend

************************************





Comments


Popular Abingdon Boys School tabs & chords
Desert Rose Tabs
Howling Tabs
Howling 1 Tabs
Innocent Sorrow Tabs
Kimi No Uta Tabs
Nephilim Tabs
Shiosai Tabs
Shiosai 2 Tabs
Strength 2 Tabs
Via Dolorosa Intro Tabs


Song lyrics



↑ Back to top | Tablatures and chords are parodies/interpretations of the original songs. You may use it for private study, scholarship, research or language learning purposes only
© 2014 AZChords.com Contact us | Privacy policy | DMCA | Add/correct tabs | Request tabs | Top 50 tabs