>
 >
Shiosai

Shiosai Guitar Tabs

Abingdon Boys School - Shiosai chords, tabs, tablatures, lyrics

Guitar lessons | Add/correct | Request | Top 50 tabs Artists:  A B C D E F G H I J K L M N O P Q R S T U V W X Y Z 0-9

Shiosai Guitar Tabs – Abingdon Boys School

CD, Sheet music, Poster

Do you like Shiosai? Share with your friends now
TabsTabs v2
-------------------------------------------------------------------------------
-------------------------------------------------------------------------------

Tuning:Drop D (DADGBE)


************************************
| U   Strum UP
| D   Strum DOWN
| N.H Natural Harmonic
| /   slide up
| \   slide down
| h   hammer-on
| p   pull-off
| ~   vibrato
| +   harmonic
| x   Mute note
| b   Bend
| pb  Pre-bend
| br  Bend release
| pbr Pre-bend release
| brb Bend release bend

************************************

This is Hiroshi Shibasaki's part, not Sunao's, so listen close to the right guitar.

Listen to the song to get the correct strumming pattern down on the chords played 
during the chorus.

The U and D is for Up and Down strumming.


Intro/Chorus

e|----------------------------|
B|----------------------------|
G|----------------------------|
D|---4-444-44----4-444-45-----| X3
A|---2-222-22----2-222-22-----|
D|---2-222-22----2-222-22-----|
     U UDU DU    U UDU DU
e|----------------------------|
B|----------------------------|
G|----------------------------|
D|---4-444-44-----44----------|
A|---2-222-22-----22----------|
D|---2-222-22-----22----------|
     U UDU DU     UU

e|------------------------------------------------------------------------------|
B|-------------------333-3-3-3-3-3-3--------------------------------------------|
G|--555-5-5-5-5-5-5--222-2-2-2-2-2-2--------------------------------------------|
D|--555-5-5-5-5-5-5--000-0-0-0-0-0-0----77-7-7-9-9-9-9--2-2-2-5-5-22-2-2-4-5-7--|
A|--333-3-3-3-3-3-3--000-0-0-0-0-0-0----77-7-7-9-9-9-9--2-2-2-----22-2-2-2-2-3--|
D|-------------------000-0-0-0-0-0-0----77-7-7-9-9-9-9--2-2-2-----22-2-2-2-2-3--|
        U U U U U U      U U U U U U       U U U U U U  x x x     xx x x

e|----------------------------------------------------------------------------|
B|----------3-3-3-3-----------------------------------------------------------|
G|--555-5-5-2-2-2-2--44-4-4--------------------------55-5-5--4---5------------|
D|--555-5-5-0-0-0-0--44-4-4--2--0---77-7-7-9-9-9-9\--55-5-5--4---5-----22-----|
A|--333-3-3-0-0-0-0--22-2-2--2--0---77-7-7-9-9-9-9\--33-3-3--2---3-----22-----|
D|----------0-0-0-0----------2--0---77-7-7-9-9-9-9\--------------3-----22-----|
        U U U U U U     U U            U U U U U U      U U            xx


Verse 1: Part 1 (Use delay on this bit. Listen very close to get the timing.)

e|---10-9-10---10-9-10------10-10-------------|
B|----------12---------12---------------------|
G|--------------------------------------------|
D|--------------------------------------------| x1
A|--------------------------------------------|
D|--------------------------------------------|

e|---10-9-10---10-9-10------------------------|
B|----------12---------12---------------------|
G|--------------------------12--12-12---------|
D|--------------------------------------------| x3
A|--------------------------------------------|
D|--------------------------------------------|

e|-14--14-10--10-12--12----------------14--14-10--10-12--12------------------|
B|---------------------12---10-12--12------------------------12--10-12-10-12-|
G|---------------------------------------------------------------------------|
D|---------------------------------------------------------------------------| x4
A|---------------------------------------------------------------------------|
D|---------------------------------------------------------------------------|


Verse 1: Part 2

e|-----------------------------------------------------------------------------|
B|-----------------------------------------------------------------------------|
G|-----------------------------------------5---5-5--5--55-5---4---4-4--4--44-7-|
D|--5-5--5---4-4--4-------4-4--4---/12\----5---5-5--5--55-5---4---4-4--4--44-7-|
A|--3-3--3---2-2--2-------2-2--2---/12\----3---3-3--3--33-3---2---2-2--2--22-5-|
D|--3-3--3---2-2--2-------2-2--2---/12\----3---3-3--3--33-3---2---2-2--2--22---|
    x x  x   x x  x       x x  x               x x  x  xx         x x  x  xx 
e|-------------------------------------------------|
B|------------------------------xx-x---------------|
G|------------44444444--4-4-----xx-x---------------|
D|--3--5--7---44444444--4-4-----xx-x---------------|
A|--3--3--3---22222222--2-2-----xx-x---------------|
D|--3--3--3---------------------xx-x---------------|
              xxxxxxxx


Chorus 2


e|------------------------------------------------------------------------------|
B|-------------------333-3-3-3-3-3-3--------------------------------------------|
G|--555-5-5-5-5-5-5--222-2-2-2-2-2-2--------------------------------------------|
D|--555-5-5-5-5-5-5--000-0-0-0-0-0-0----77-7-7-9-9-9-9--2-2-2-5-5-22-2-2-4-5-7--|
A|--333-3-3-3-3-3-3--000-0-0-0-0-0-0----77-7-7-9-9-9-9--2-2-2-----22-2-2-2-2-3--|
D|-------------------000-0-0-0-0-0-0----77-7-7-9-9-9-9--2-2-2-----22-2-2-2-2-3--|
        U U U U U U      U U U U U U       U U U U U U  x x x     xx x x

e|----------------------------------------------------------------------------|
B|----------3-3-3-3-----------------------------------------------------------|
G|--555-5-5-2-2-2-2--44-4-4--------------------------55-5-5--4---5------------|
D|--555-5-5-0-0-0-0--44-4-4--2--0---77-7-7-9-9-9-9\--55-5-5--4---5------------|
A|--333-3-3-0-0-0-0--22-2-2--2--0---77-7-7-9-9-9-9\--33-3-3--2---3------------|
D|----------0-0-0-0----------2--0---77-7-7-9-9-9-9\--------------3------------|
        U U U U U U     U U            U U U U U U      U U            


Verse 2: Part 1
e|----7-7--7-7-----------------|
B|----7-7--7-7-----------------|
G|----7h9--7-9-----------------|
D|----9-9--9-9-----------------| x4
A|-----------------------------| 
D|-----------------------------| 

Verse 2: Part 2
e|---------------------------------------|
B|---------------------------------------|
G|---------------------------------------|
D|---------5------4--------2-------------| x4
A|-----0-2------0------0-2---------------|
D|--2---------2------2-------------------| 


Verse 2: Part 3 Solo (Credit goes to theoryspace for the solo)
E|-------------------|----------------------------------------|----|
B|-------8--7--------|------------------------------------7-8-|-7--|
G|--9---------9-7----|--------------------------------7-9-----|----|
D|----------------10-|-9-7---------------7--9-7-9-10----------|----|
A|-------------------|-----10-9--10-9-10----------------------|----|
D|-------------------|----------------------------------------|----|

E|-----------------|-----------------------7----------------|-----------|--------7----|
B|-----------------|---------------7-8--10---10-8--7--------|------8----|--10---------|
G|-----------------|-----------7-9-------------------9-7----|-----------|-------------|
D|--------7------7-|-9-7-9-10----------------------------10-|-9---------|-------------|
A|--9-10----9-10---|----------------------------------------|-----------|-------------|
D|-----------------|----------------------------------------|-----------|-------------|

E|---------------------7-------------7-8--|--7--------7---10-7--------7-----------|-------|
B|--7----------7-8-10--------7--8-10------|----8-7-8----8-------8-7-8----8-7-8-7--|-------|
G|--------7--9-----------7-9--------------|---------------------------------------|--9----|
D|----7-9---------------------------------|---------------------------------------|-------|
A|----------------------------------------|---------------------------------------|-------|
D|----------------------------------------|---------------------------------------|-------|

E|---------------|-----------------------------------------|--------10----|----------------|
B|--8--7---------|------------------------------------7-8--|--10----------|--7~------7-----|
G|-------9-7-----|--------------------------------7-9------|--------------|-------9-----7--|
D|-----------10--|--9-7--------------7--9-7-9-10-----------|--------------|----------------|
A|---------------|------10-9--7-9-10-----------------------|--------------|----------------|
D|---------------|-----------------------------------------|--------------|----------------|

E|-----------------------------------7-|-8---------7-8-10--12--|-/14----12--------------|
B|-------8---------8-10---------8-10---|------8-10-------------|------------------------|
G|--9-10------9-10---------9-10--------|-----------------------|--------------14-14/16--|
D|-------------------------------------|-----------------------|------------------------|
A|-------------------------------------|-----------------------|------------------------|
D|-------------------------------------|-----------------------|------------------------|


Chorus 3
e|------------------------------------------------------------------------------|
B|-------------------333-3-3-3-3-3-3--------------------------------------------|
G|--555-5-5-5-5-5-5--222-2-2-2-2-2-2--------------------------------------------|
D|--555-5-5-5-5-5-5--000-0-0-0-0-0-0----77-7-7-9-9-9-9--2-2-2-5-5-22-2-2-4-5-7--|
A|--333-3-3-3-3-3-3--000-0-0-0-0-0-0----77-7-7-9-9-9-9--2-2-2-----22-2-2-2-2-3--|
D|-------------------000-0-0-0-0-0-0----77-7-7-9-9-9-9--2-2-2-----22-2-2-2-2-3--|
        U U U U U U      U U U U U U       U U U U U U  x x x     xx x x

e|---------------------------------------------------------------------------|
B|----------3-3-3-3----------------------------------------------------------|
G|--555-5-5-2-2-2-2--44-4-4--------------------------55-5-5--4---------------|
D|--555-5-5-0-0-0-0--44-4-4--2--0---77-7-7-9-9-9-9\--55-5-5--4---------------|
A|--333-3-3-0-0-0-0--22-2-2--2--0---77-7-7-9-9-9-9\--33-3-3--2---------------|
D|----------0-0-0-0----------2--0---77-7-7-9-9-9-9\--------------------------|
        U U U U U U     U U            U U U U U U      U U   



Breakdown/Climax @ 2:57
e|----------------------------------------------------------------------|
B|----------------------------------------------------------------------|
G|-5-5-5/7-7-7-7/9-9/12-12-12-12-12-------------------------------------|
D|-x-x-x/x-x-x-x/x-x/x--x--x--x--x--------------------------------------|
A|-3-3-3/5-5-5-5/7-7/10-10-10-10-10--------------5-7---3-5---888--------|
D|------------------------------------0-22-0-3-0-----0-----0------------|

(Note:The guitar here pans right and left on the last note)
e|----------------------------------------------------------------------|
B|----------------------------------------------------------------------|
G|-5-5-5/7-7-7-7/9-9/12-12-12-12-12-------------------------------------|
D|-x-x-x/x-x-x-x/x-x/x--x--x--x--x--------------------------------------| 
A|-3-3-3/5-5-5-5/7-7/10-10-10-10-10--------------5-7---3-5---888--------| 
D|------------------------------------0-22-0-3-0-----0-----0------------|


e|----------------------------------------------------------------------|
B|----------------------------------------------------------------------|
G|-5-5-5/7-7-7-7/9-9/12-12-12-12-12-------------------------------------|
D|-x-x-x/x-x-x-x/x-x/x--x--x--x--x--------------------------------------|
A|-3-3-3/5-5-5-5/7-7/10-10-10-10-10--------------5-7---3-5--------------|
D|------------------------------------0-22-0-3-0-----0-----0--333-------|
                                                              N.H

Now headbang! @ 3:14
e|--------------------------------------|
B|--------------------------------------|
G|--------------------------------------|
D|--------------------------------------| x3
A|-------------5-7---3-5---888----------| 
D|--0-22-0-3-0-----0-----0--------------| 

e|--------------------------------------|
B|--------------------------------------|
G|--------------------------------------|
D|--------------------------------------| x1
A|-------------5-7---3-5---8888---------| 
D|--0-22-0-3-0-----0-----0--------------| 


Right before the Final Chorus
e|------------|
B|------------|
G|------------|
D|--7--9-9----|
A|--7--9-9----|
D|--7--9-9----|

Final Chorus
e|------------------------------------------------------------------------------|
B|-------------------333-3-3-3-3-3-3--------------------------------------------|
G|--555-5-5-5-5-5-5--222-2-2-2-2-2-2--------------------------------------------|
D|--555-5-5-5-5-5-5--000-0-0-0-0-0-0----77-7-7-9-9-9-9--2-2-2-5-5-22-2-2-4-5-7--|
A|--333-3-3-3-3-3-3--000-0-0-0-0-0-0----77-7-7-9-9-9-9--2-2-2-----22-2-2-2-2-3--|
D|-------------------000-0-0-0-0-0-0----77-7-7-9-9-9-9--2-2-2-----22-2-2-2-2-3--|
        U U U U U U      U U U U U U       U U U U U U  x x x     xx x x

e|---------------------------------------------------------------------------|
B|----------3-3-3-3----------------------------------------------------------|
G|--555-5-5-2-2-2-2--44-4-4--------------------------55-5-5--4--4-4-4--------|
D|--555-5-5-0-0-0-0--44-4-4--2--0---77-7-7-9-9-9-9\--55-5-5--4--4-4-4--------|
A|--333-3-3-0-0-0-0--22-2-2--2--0---77-7-7-9-9-9-9\--33-3-3--2--2-2-2--------|
D|----------0-0-0-0----------2--0---77-7-7-9-9-9-9\--------------------------|
        U U U U U U     U U            U U U U U U      U U     U U U
e|---------------------------------------------------|
B|---------------------------------------------------|
G|--------------------55-5-5----------5--------------|
D|---77-7-7--9-9-9-9--55-5-5---0------5--------------|
A|---77-7-7--9-9-9-9--33-3-3---0------3--------------|
D|---77-7-7--9-9-9-9-----------0------3--------------|
        U U  U U U U     U U

Outro
e|---------------------------------------------------------------------------|
B|---------------------------------------------------------------------------|
G|---------------------------------------------------------------------------|
D|-4-4------4-4---4-4------4-5---4-4------4-4---4-4------4-5---4-------------|
A|-2-2------2-2---2-2------2-2---2-2------2-2---2-2------2-2---2-------------|
D|-2-2-2222-2-2---2-2-2222-2-2---2-2-2222-2-2---2-2-2222-2-2---2-------------|
   U U XXXX D U   U U xxxx D U   U U xxxx D U   U U xxxx D U   X

That's it! I hope you enjoyed this tab!
If you would like me to tab out anymore songs by Abingdon Boys School send me a message!





Comments


Popular Abingdon Boys School tabs & chords
Strength Bass Tabs
Desert Rose Tabs
Dress Tabs
Innocent Sorrow Tabs
Kimi No Uta Tabs
Shiosai 2 Tabs
Strength Tabs
Strength 2 Tabs
Strength 3 Tabs
Via Dolorosa Intro Tabs


Song lyrics



↑ Back to top | Tablatures and chords are parodies/interpretations of the original songs. You may use it for private study, scholarship, research or language learning purposes only
© 2014 AZChords.com Contact us | Privacy policy | DMCA | Add/correct tabs | Request tabs | Top 50 tabs