» » »

Aaron Lewis, Tangled Tabs (ver.2)

Artists:  A B C D E F G H I J K L M N O P Q R S T U V W X Y Z # 

Tangled Tabs (ver.2)

Aaron Lewis Tabs
Rating:
3/5 (4 votes)
Tangled lessons Tabs too difficult? Try these video lessons and learn fast
                                             tangled - aaron lewis
-------------------------------------------------------------------------------

Tuning:c#,g#,c#,f,a#,d#      im almost positive this is how he plays it. this tab is for
only, not for copying and distribution.this tab is not from the artist it is my take on
song. this is my very first tab im not sure how to do it so if u guys have any 
please feel free to let me no..i am positive that this is how he plays it tho


INTRO & VERSE 1x and then singing begins on second time and then X4
e|---------------------------------------------------------------------------|
B|---------------------------------------------------------------------------|
G|-------------0-------------------0-------------------5---------------5-----|
D|---------2-------------------2-------------------7----------------7--------|
A|-----0-------------------0-------------------5-----------------5-----------|
E|--0------------------0--------------------5-----------------5--------------|

   your my world,my shelter from the rain
   your the pills, that take away my pain
   your the fire, that warms me when im cold
   your the hand, to hold as i grow old


CHORUS (on the last part of the chorus end the "tangled up in you" part by going back to
beginning of the verse.

e|--------------------------------------------------------------------------|
B|--------------------------------------------------------------------------|
G|---------------------------------------5-----------5----------------------|
D|--------11 12--------11 12----------7------------7---------X2-------------|
A|-----9-------------9--------------5------------5--------------------------|
E|---9-------------9--------------5------------5----------------------------|

   Cuz in a world where, nothing else is true
   here i am still, tangled up in you, im still tangled up in you  X2

REPEAT VERSE  X4

      Your the ship, when i am lost at sea
      Your the only thing that i like about me
      Your the light, that still shows me the way
      Your the end of my very best day


Repeat Chorus
            

comments powered by Disqus
↑ Back to top | Aaron Lewis Tabs for Tangled. Lyrics for acoustic guitar and electric guitar. Tablatures and chords are parodies/interpretations of the original songs. You may use it for private study, scholarship, research or language learning purposes only