» » »

Aaliyah, Are You That Somebody Chords (ver.2)

Artists:  A B C D E F G H I J K L M N O P Q R S T U V W X Y Z # 

Are You That Somebody Chords (ver.2)

Aaliyah Tabs
 Rating:
4/5 (4 votes)
Are You That Somebody lessons Tabs too difficult? Try these video lessons and learn fast
1
                I dont know some of the chord names are so i just named em whatever but i made a 
diagram for you to follow below

good song, one of my favorites
enjoy

this is the lead guitar
its played over and over
Credit for the lead guitar goes to : qweyet Gi

e|-----------------|-----------------|-----------------|-------------------|
B|-----------------|-----------------|-----------------|-------------------|
G|-----------------|-----------------|-----------------|-------------------|
D|--7--7-----------|------0----------|--3--3---0-0-0-0-|--2--2-------------|
A|--5--5-----------|--0-3---3-0------|--1--1-----------|--0--0-------4-4-4-|
E|-----------------|-----------------|-----------------|-------------------|

chords: 
      
         D5                C                Bb                Am
e|----------------|----------------|--------6--------|-------5----------|
B|-------6--------|--------8-------|--------6--------|-------5----------|
G|-------5--------|--------8-------|--------7--------|-------6----------|
D|-------7--------|--------8-------|--------8--------|-------5----------|
A|-------5--------|--------x-------|--------8--------|-------7----------|
E|----------------|--------8-------|--------6--------|-------5----------|

Verse 1 : 

D5  C
Boy I've been watching you
       Bb
Like a hawk in a sky
     Am
That flies, and
            D5
you were my prey (my prey)
C
Boy, I promise you
      Bb
If we keep bumpin’ heads
        Am                     D5
And you know that one of these days (days)
C
We gone hook it up
         Bb
Probably talk from the phone
    Am                         D5
But see I don't know if that's good
C
I've been holding back
     Bb
This secret from you
Am                              D5
Probably shouldn't tell you but if I

-repeat versus exactly the same-

chorus:
     C            Bb
If I let you know
                      Am
You can't tell nobody
                        D5
I'm talking bout nobody
        C            Bb
Are you responsible?
                          Am
Boy I gotta watch my body
                     D5
I'm not just anybody
             C             Bb
Is it my go, Is it your go
                          Am
Sometimes I'm goody goody

Right now I'm naughty naughty

-Chorus sounds the same the rest of the way-
            
Submit corrections

comments powered by Disqus
↑ Back to top | Aaliyah Chords for Are You That Somebody. Lyrics for acoustic guitar and electric guitar. 1 Tablatures and chords are parodies/interpretations of the original songs. You may use it for private study, scholarship, research or language learning purposes only